Local H

Local H - Eddie Vedder guitar tab

Tuning: Standard tuning down 1/2 step

This song, as far as i can tell, uses one guitar. I think it sounds best

with my strat-styled guitar with the bridge pickup engaged and medium

distortion.

Play this first riff 5 times. Notes in parenthesis mean to bend the string

up to that pitch. Example: -2-(3)-(2)- would mean to bend the string at the

second fret up one-half step and release it.

X Y

e--3-3---3-3-3-3-3-----------0-0---0---0-0----------

B--3-3---3-3-3-3-3-----------0-0---0---0-0----------

G--0-0---0-0-0-0-0-0------0----------------9-9-7-7--

D--0-0-0---0-0-0-0-0------0--2-2-2---2-----9-9-7-7--

A--2-2-2---2-2-2-2-0------0--2-2-2---2-----7-7-5-5--

E--3-3-3---3-3-3-3-2-(3)-(2)-0-0-0---0-----7-7-5-5--

This second part is played only twice the first time but it is used again

later. Stop at the X after you played it once the first time.

X

e--------------------------0-0---0---0-0------------

B--------------------------0-0---0---0-0------------

G--5-5-5-5-5-5-5-5-5-7-5-0-0-0---0---0-0---9-9-7-7--

D--5-5-5-5-5-5-5-5-5-7-5-0-2-2-2---2-----2-9-9-7-7--

A--3-3-3-3-3-3-3-3-3-5-3---2-2-2---2-----2-7-7-5-5--

E--3-3-3-3-3-3-3-3-3-5-3---0-0-0---0-----0-7-7-5-5--

Play this small part once.

e---------------------------

B--2-2-2-2-2-2-5-5-5-5-5-5--

G--2-2-2-2-2-2-5-5-5-5-5-5--

D--2-2-2-2-2-2-5-5-5-5-5-5--

A--0-0-0-0-0-0-3-3-3-3-3-3--

E---------------------------

Now play the first part again 4 times. Then the second part is played 4

times. Stop at the X again on the 4th time. Then play the third part once

again.

Then play this riff 4 times. Stop at the X on the 4th time. The x's on the

line mean to mute the strings.

X

e--0-0-0-0---0---0-0---0-0----------------------------

B--0-0-0-0---0---0-0---0-0---2-2-2-2-\-2-2-2-2-2-2-2--

G--0-0-0-0---0---0-0---0-0---2-2-2-2-x-2-2-2-2-2-2-2--

D--2-2-2---2---2-----2-----2-2-2-2-2-x-2-2-2-2-2-2-2--

A--2-2-2---2---2-----2-----2-0-0-0-0-x-0-0-0-0-0-0-0--

E--0-0-0---0---0-----0-----0--------------------------

This solo goes over the last riff. It is played by another guitar and starts

midway through the last riff. Play the part after the X twice. Once again,

notes in parenthesis are bent strings. The slash means to pull off or hammer

on.

X

e------------------------------------------------------------

B------------------------------------------------------------

G------------------------------------------------------------

D--7-(9)-(7)-\-5---------------------------------------------

A-----------------7---7-7-7-/-9-9-9-/-10-10-10-/-12-12-12-12-

E------------------------------------------------------------

Get this song at:  amazon.com sheetmusicplus.com

Share your thoughts

0 Comments found