Little River Band

Little River Band - Lady guitar tab

This is my fun fake!!!

Picked it up by ear and can play it a long with the recording.

May not be right, but if you can do it better why didn't you?

This is not to be used for anything but for fun and/or

education!

This is a good song to use as a finger-picking exercise...

I would be happy if you want to make corrections, coz in the

end, if it is played correctly it always sounds better!

Bill Killian

E-mail me at res7lnqa@verizon.net

Lady

Little River Band

Intro

----------------------------------------------------------

-----------------------------------------------------0----

----2----0----2----0--2--0-----2----0--7--6--6--2----2----

----2----0----2----0--2--0-----2----0--7--6--4--2----2----

----2----0----2----0--2--0-----2----0--7--5--3--2----2----

----0----0----0----0--0--3-----0----0--0--0--0--0----0----

Play this twice before starting first verse:

This is an A chord played with different bass notes

and is real easy once you get the hang of it

A A/G A/F# A/G

------------------3-----------2-----------3----------------

------0----------------------------------------------------

-----------------------------------------------------------

---------2-----------2-----------2-----------2-------------

------------2-----------2-----------2-----------2----------

---------------0-----------0-----------0-----------0-------

1st verse:

A A/G A/F# A/G

------------------3-----------2-----------3----------------

------0----------------------------------------------------

-----------------------------------------------------------

---------2-----------2-----------2-----------2-------------

------------2-----------2-----------2-----------2----------

---------------0-----------0-----------0-----------0-------

Look around you

A A/G A/F# A/G

------------------3-----------2-----------3----------------

------0----------------------------------------------------

-----------------------------------------------------------

---------2-----------2-----------2-----------2-------------

------------2-----------2-----------2-----------2----------

---------------0-----------0-----------0-----------0-------

Look up here

A A/G A/F# A/G

------------------3-----------2-----------3----------------

------0----------------------------------------------------

-----------------------------------------------------------

---------2-----------2-----------2-----------2-------------

------------2-----------2-----------2-----------2----------

---------------0-----------0-----------0-----------0-------

Take time to make time make time to be there

A A/G A/F# A/G

------------------3-----------2-----------3----------------

------0----------------------------------------------------

-----------------------------------------------------------

---------2-----------2-----------2-----------2-------------

------------2-----------2-----------2-----------2----------

---------------0-----------0-----------0-----------0-------

Look around

A A/G A/F# A/G

------------------3-----------2-----------3----------------

------0----------------------------------------------------

-----------------------------------------------------------

---------2-----------2-----------2-----------2-------------

------------2-----------2-----------2-----------2----------

---------------0-----------0-----------0-----------0-------

Be a part

A A/G A/F# A/G

------------------3-----------2-----------3----------------

------0----------------------------------------------------

-----------------------------------------------------------

---------2-----------2-----------2-----------2-------------

------------2-----------2-----------2-----------2----------

---------------0-----------0-----------0-----------0-------

Feel for the winter but don't have a cold heart......

A A/G A/F# A/G

------------------3-----------2-----------3----------------

------0----------------------------------------------------

-----------------------------------------------------------

---------2-----------2-----------2-----------2-------------

------------2-----------2-----------2-----------2----------

---------------0-----------0-----------0-----------0-------

........

(E chord picked)

------0-----------------------0----------------------------

-----------------------------------------------------------

------------------2-----------------------2----------------

---------2-----------2-----------2-----------2-------------

------------0-----------0-----------0-----------0----------

---------------0-----------0-----------0-----------0-------

And I love you best

E

------0-----------------------0----------------------------

-----------------------------------------------------------

------------------2-----------------------2----------------

---------2-----------2-----------2-----------2-------------

------------0-----------0-----------0-----------0----------

---------------0-----------0-----------0-----------0-------

You're not like the rest

E

------0-----------------------0----------------------------

-----------------------------------------------------------

------------------2-----------------------2----------------

---------2-----------2-----------2-----------2-------------

------------0-----------0-----------0-----------0----------

---------------0-----------0-----------0-----------0-------

You're there when I need you, you're there when I need

E

------0-----------------------0----------------------------

-----------------------------------------------------------

------------------2-----------------------2----------------

---------2-----------2-----------2-----------2-------------

------------0-----------0-----------0-----------0----------

---------------0-----------0-----------0-----------0-------

I'm gonna need

A A/G A/F# A/G

------------------3-----------2-----------3----------------

------0----------------------------------------------------

-----------------------------------------------------------

---------2-----------2-----------2-----------2-------------

------------2-----------2-----------2-----------2----------

---------------0-----------0-----------0-----------0-------

you

D

-----------------------------------------------------------

------------------0-----------------------0----------------

------0-----------------------0----------------------------

---------2-----------2-----------2-----------2-------------

------------3-----------3-----------3-----------3----------

---------------2-----------2-----------2-----------2-------

So lady let me take a look at you

A

-----------------------------------------------------------

------0-----------------------0----------------------------

------------------0-----------------------0----------------

---------2-----------2-----------2-----------2-------------

------------2-----------2-----------2-----------2----------

---------------0-----------0-----------0-----------0-------

now

D

-----------------------------------------------------------

------------------0-----------------------0----------------

------0-----------------------0----------------------------

---------2-----------2-----------2-----------2-------------

------------3-----------3-----------3-----------3----------

---------------2-----------2-----------2-----------2-------

You're there on the dance floor making me want you some-

A

-----------------------------------------------------------

------0-----------------------0----------------------------

------------------0-----------------------0----------------

---------2-----------2-----------2-----------2-------------

------------2-----------2-----------2-----------2----------

---------------0-----------0-----------0-----------0-------

how

D

-----------------------------------------------------------

------------------0-----------------------0----------------

------0-----------------------0----------------------------

---------2-----------2-----------2-----------2-------------

------------3-----------3-----------3-----------3----------

---------------2-----------2-----------2-----------2-------

Well lady I think it's only fair I should

A A/G A/F# A/E

------------------3-----------2-----------0----------------

------0----------------------------------------------------

-----------------------------------------------------------

---------2-----------2-----------2-----------2-------------

------------2-----------2-----------2-----------2----------

---------------0-----------0-----------0-----------0-------

say to you

E D E

------0-----------------------------------0----------------

-----------------------------------------------------------

------------------2-----------0----------------------------

---------2-----------2-----------2-----------2-------------

------------0-----------0-----------3-----------0----------

---------------0-----------0-----------2-----------0-------

Don't be thinkin that I don't want you coz lady I

A

------------------3-----------2-----------3----------------

------0----------------------------------------------------

-----------------------------------------------------------

---------2-----------2-----------2-----------2-------------

------------2-----------2-----------2-----------2----------

---------------0-----------0-----------0-----------0-------

do

I think you can figure the rest out...

Mostly exactly the same as the first except second verse

is not finger picked...

If you are performing it 'unplugged', finger pick it!

Get this song at:  amazon.com sheetmusicplus.com

Share your thoughts

0 Comments found