Linkin Park

Linkin Park - Qwerty guitar tab

Song:Qwerty

Band:Linkin Park

S = slide INTRO

E|-------------------------------------------------------------|

B|-------------------------------------------------------------|

G|-------------------------------------------------------------|

D|--0-0-0-0--7-3-2-1--------------0----0----0----0-------------|

A|--0-0-0-0--7-3-2-1---x-8--------0----0----0----0-----x-2-----|

D|--0-0-0-0--7-3-2-1--------------0----0----0----0-------------|

VERSE

|-------------------------------------------------------------|

|-------------------------------------------------------------|

|-------------------------------------------------------------|

|-------------------------------------------------------------|

|-------------------------------------------------------------|

|-0-12-13-0-12-13-0-12-13-0-12-13-0-12-13-0-12-13-10-12-------|

VERSE

|-------------------------------------------------------------|

|-------------------------------------------------------------|

|-------------------------------------------------------------|

|---8--------7-----s-----10-----------------------------------|

|---8--------7-----s-----10-----------------------------------|

|---8--------7-----s-----10-----------------------------------|

VERSE

|-------------------------------------------------------------|

|-------------------------------------------------------------|

|-------------------------------------------------------------|

|-------------------------------------------------------------|

|-------------------------------------------------------------|

|-0-12-13-0-12-13-0-12-13-0-12-13-0-12-13-0-12-13-16-13-------|

COURSE

|-------------------------------------------------------------|

|-------------------------------------------------------------|

|----------------------------------5b-------------------------|

|--0-0-0-0-7-5-0---0-0-0-7-3-s-5----x-------------------------|

|--0-0-0-0-7-5-0---0-0-0-7-3-s-5---3b-------------------------|

|--0-0-0-0-7-5-0---0-0-0-7-3-s-5------------------------------|

END PART

|-------------------------------------------------------------|

|-------------------------------------------------------------|

|-------------------------------------------------------------|

|--0-0-0-0--7-3-2-1--------------0--------------0-------------|

|--0-0-0-0--7-3-2-1--------------0--------------0-------------|

|--0-0-0-0--7-3-2-1--------------0--------------0-------------|

Just play alonge with the song......enjoyAdded by tabs-database.com and our distinguished partners

Get this song at:  amazon.com sheetmusicplus.com

Share your thoughts

0 Comments found