Linkin Park

Linkin Park - A 06 guitar tab

Artist - Linkin Park

Song - A.06

Album - LP Underground V2.0

Tuning - Db Ab Db Gb Bb Eb

Tabbed by Jamie Williams (lpweb@shaw.ca)

Parts Revised and Edited by innerfears (innerfears@linkinpark.com)

Jamie's version:

Intro - Palm Muted

Eb-|------------------------------------------------------------------------------|

Bb-|------------------------------------------------------------------------------|

Gb-|------------------------------------------------------------------------------|

Db-|------------------------------------------------------------------------------|

Ab-|------------------------------------------------------------------------------|

Db-|-7-0-0-0-1-0-0-0----0-1-0-1-0-0-0---------------------------------------------|

Intro cont'd - Palm Muted

Eb-|------------------------------------------------------------------------------|

Bb-|------------------------------------------------------------------------------|

Gb-|------------------------------------------------------------------------------|

Db-|------------------------------------------------------------------------------|

Ab-|-7-0-0-0-1-0-0-0----0-1-0-1-0-0-0---------------------------------------------|

Db-|-7-0-0-0-1-0-0-0----0-1-0-1-0-0-0---------------------------------------------|

Chorus

Eb-|------------------------------------------------------------------------------|

Bb-|------------------------------------------------------------------------------|

Gb-|------------------------------------------------------------------------------|

Db-|------------------------------------------------------------------------------|

Ab-|-0-2-1-0-6-0-2-3-0-3-4-0-7-3-1------------------------------------------------|

Db-|-0-2-1-0-6-0-2-3-0-3-4-0-7-3-1------------------------------------------------|

Eb-|------------------------------------------------------------------------------|

Bb-|------------------------------------------------------------------------------|

Gb-|------------------------------------------------------------------------------|

Db-|------------------------------------------------------------------------------|

Ab-|-0-0-0-0----------------------------------------------------------------------|

Db-|-0-0-0-0----------------------------------------------------------------------|

PM . . . .

innerfears' version:

Palm Muted:

Db------------------------------------------------------------

Ab------------------------------------------------------------

Db-8p0-00-1p0-00--0-1p0-1p0-00-------------------------------- repeat 2x

Palm Muted:

Db------------------------------------------------------------

Ab-8p0-00-1p0-00--0-1p0-1p0-00--------------------------------

Db-8p0-00-1p0-00--0-1p0-1p0-00-------------------------------- repeat 4x

Db------------------------------------------------------------

Ab-0h2h1p0-6p0-2h3-0-3h4p0-7-3-1------------------------------

Db-0h2h1p0-6p0-2h3-0-3h4p0-7-3-1------------------------------ repeat 3x

Db------------------------------------------------------------

Ab-0h2h1p0-6p0-2h3-0-3h4-0-0-0-0------------------------------

Db-0h2h1p0-6p0-2h3-0-3h4-0-0-0-0------------------------------

PM-----

Db------------------------------------------------------------

Ab-0h2h1p0-6p0-2h3-0-3h4p0-7-3-1------------------------------

Db-0h2h1p0-6p0-2h3-0-3h4p0-7-3-1------------------------------ repeat 3x

Db------------------------------------------------------------

Ab-0h2h1p0-6p0-2h3-0-0-0-0-0-0-0-0----------------------------

Db-0h2h1p0-6p0-2h3-0-0-0-0-0-0-0-0----------------------------

PM-------------

Get this song at:  amazon.com sheetmusicplus.com

Share your thoughts

0 Comments found