Limp Bizkit

Limp Bizkit - N 2 Gether Now guitar tab

From: CockyAzz@aol.com

Date: Mon, 21 Feb 2000 19:31:46 EST

Subject: l/limp_bizkit/n_2_gether_now.tab

N 2 Gether Now

By Limp Bizkit feat. Method Man

>From the CD "Significant Other"

Transcribed by:

Eric Espiritu

CockyAzz@aol.com

Here is a version of "N 2 Gether Now" that I came up

with for the guitar. I think it sounds pretty cool.

(intro)

e--------------------14----14----14----14---------

b--12--12--12-12-12--12-12-12-12-12-12-12-15\14---

g--11--11--11-11-11--11-11-11-11-11-11-11---------

d--12--12--11-12-12--12-12-11-12-12-12-12---------

a-------------------------------------------------

e-------------------------------------------------

(pretty much the rest of the song....just play this

over and over)

e----------14-14-14-------------------------------

b--12--15--12-12----15\14-------------------------

g--11--14--11-11----------------------------------

d--12--16-----------------------------------------

a-------------------------------------------------

e-------------------------------------------------

This is all there is to this song. The intro is

played through parts of the song also. Just listen

to the song to figure it out. It's pretty easy.

Get this song at:  amazon.com sheetmusicplus.com

Share your thoughts

0 Comments found