Led Zeppelin

Led Zeppelin - Heartbreaker Complete bass tab

Song: Heartbreaker

Artist: Led Zeppelin

Bassist: John Paul Jones

Tabbed By: Sam

Guitar plays on it's own for the first time.

G|--------------------------------|

D|--------------------------------|

A|-------5-6-7--------------5-6-7-|

E|-3/5-8-------3--5-5-5-5-8-------|(x2)

G----------------------------------|

D----------------------------------|

A|------7-8-9---------------7-8-9---|

E|-7-10-------5--7-7-7-7-10-------5-|(x1)

G|--------------------------------|

D|--------------------------------|

A|-------5-6-7--------------5-6-7-|

E|-3/5-8-------3--5-5-5-5-8-------|(x1)

G|--------------------------|

D|-----0----------0---------|

A|-0/3---0/3--0/3---0/3-3-2-|

E|--------------------------|(x2)

G|--------|

D|-0-0-0--|

A|--0-0-0-|

E|--------|(x1)

G|--------------------------------|

D|--------------------------------|

A|-------5-6-7--------------5-6-7-|

E|-3/5-8-------3--5-5-5-5-8-------|(x2)

G|----------------------------------|

D|----------------------------------|

A|------7-8-9---------------7-8-9---|

E|-7-10-------5--7-7-7-7-10-------5-|(x1)

G|--------------------------------|

D|--------------------------------|

A|-------5-6-7--------------5-6-7-|

E|-3/5-8-------3--5-5-5-5-8-------|(x1)

G|--------------------------|

D|-----0----------0---------|

A|-0/3---0/3--0/3---0/3-3-2-|

E|--------------------------|(x2)

G|--------|

D|-0-0-0--|

A|--0-0-0-|

E|--------|(x1)

G|--------------------------------|

D|-----3-4-5--------------3-4-5---|

A|-3-6-------1--3-3-3-3-6-------1-|

E|--------------------------------|(x2)

G|--------------------------------|

D|-----5-6-7--------------5-6-7---|

A|-5-8-------3--5-5-5-5-8-------1-|

E|--------------------------------|(x1)

G|----------------------------------|

D|------7-8-9---------------7-8-9---|

A|-7-10-------5--7-7-7-7-10-------5-|

E|----------------------------------|(x1)

G|-----------------------------------------|

D|-----------------------------------------|

A|-7-7-7-7-5-5-5-5-4-4-4-4-3-3-3-3-1-1-1-1-|<<(very Quick)

E|-----------------------------------------|(x4)

G|-----------------------|

D|----------5--4---5--4--|

A|--0---5----------------|

E|-----------------------|(x3)

G|---------------------------------------------|

D|---------------------------------------------|

A|------------3----------------3-----3---------|

E|-5----3--5-------5--3---5-------5-------5--3-|(x1)

G|----------------------------------------------------------|

D|----------------------------------------------------------|

A|-------------------6h7-7-7-7------------------------------|

E|--5--5----5--5-5-5-------------5--5----5--5-5-5-5-5-5-5-5-|(x1)

G|--------------------------|

D|-----0----------0---------|

A|-0/3---0/3--0/3---0/3-3-2-|

E|--------------------------|(x2)

G|--------|

D|-0-0-0--|

A|--0-0-0-|

E|--------|(x2)

G|--------------------------------|

D|--------------------------------|

A|-------5-6-7--------------5-6-7-|

E|-3/5-8-------3--5-5-5-5-8-------|(x1)

G|-------------|

D|-------------|

A|-----5-6-7---|

E|-5-8-------3-|(x1)

Get this song at:  amazon.com

Share your thoughts

0 Comments found