Led Zeppelin

You Shook Me Bass Tabs



More from Led Zeppelin

Led Zeppelin Tabs
Led Zeppelin Chords
Led Zeppelin Bass
Led Zeppelin Lyrics



You Shook Me
Led Zeppelin
From Led Zeppelin I
Tuning : E A D G

12/8

| | | | | | | | | | | |
|------------------------|------------------------|------------------------|
|------------------------|------------------2-----|------------2---2---0-1-|
|------------------------|--------------------3-2-|0---0-4---4-------4-----|
|------------------------|------------------------|------------------------|

| | | | | | | | | | | |
|------------------------|------------------------|------------------------|
|2---2-------------------|------------------------|------------------------|
|------------0---0-1---2-|------0-1-2-2---2-2---2-|------------2---2-4-----|
|------4---4-------------|0---0-------------------|0---0-4---4-----------3-|

| | | | | | | | | | | |
|------------------------|------------------------|------------------------|
|------------------0-1-2-|------------------------|------------------0-1-2-|
|------------2---2-------|------------2-----0-----|------------2---2-------|
|0---0-4---4-------------|0---0-4---4-----0-----3-|0---0-4---4-------------|

| | | | | | | | | | | |
|------------------0-2-0-|------------------------|------------------------|
|------------2---2-------|------------2---2---0-2-|------------------------|
|0---0-4---4-------------|0---0-4---4-------4-----|------------2-----0-----|
|------------------------|------------------------|0---0-4---4-----0-----3-|

| | | | | | | | | | | |
|------------------------|------------------2-3-4-|------------------------|
|------------------------|------1---1-4---4-------|------------2---2---0-1-|
|------------2---2---0-1-|2---2-------------------|0---0-4---4-------4-----|
|0---0-4---4-------4-----|------------------------|------------------------|

| | | | | | | | | | | |
|------------------------|------------------------|------------------------|
|------------------------|2---2-------------------|------------------0-----|
|------------0---0-1---2-|--------0-1-2---2-2-0---|------------2---2-------|
|0---0-4---4-------------|------4---------------3-|0---0-4---4---------3-3-|

| | | | | | | | | | | |
|------------------------|------------------------|--------------------0-1-|
|------------------0-1-2-|------------------------|--------------0-1-2-----|
|------------2---2-------|------------2-----0-----|------------2-----------|
|0---0-4---4-------------|0---0-4---4-----0-----3-|0---0-4---4-------------|

| | | | | | | | | | | |
|2-----------------0-----|------------------------|------------------------|
|------------2---2---4-2-|------------2---2-0-1-2-|------------------------|
|----0-4---4-------------|0---0-4---4-------------|------------2-----0-----|
|------------------------|------------------------|0---0-4---4-----0-----3-|

| | | | | | | | | | | |
|------------------------|------------------2-3-4-|------------------0-----|
|------------------------|------0---0-4---4-------|------------2---2---2-4-|
|------------2---2---0-1-|2---2-------------------|0---0-4---4-------------|
|0---0-4---4-------4-----|------------------------|------------------------|

| | | | | | | | | | | |
|------------------------|------------------------|------------------------|
|2---2-0---0-------------|------------------------|------------------0-----|
|------------4---4-3---3-|2---2-0-1-2-2-2-2-2---0-|------------2---2-------|
|------------------------|--------------------3---|0---0-4---4---------3-3-|

| | | | | | | | | | | |
|------------------------|------------------------|------------------------|
|------------------------|------------------------|------------------0-1-2-|
|------------2-----0-----|------------2-----0-----|------------2---2-------|
|0---0-4---4-----0-----4-|0---0-4---4-----0-----3-|0---0-4---4-------------|

| | | | | | | | | | | |
|------------------1-1-1-|------------------------|------------------------|
|------------2---2-------|------------2---2-0-1-2-|------------------------|
|0---0-4---4-------------|0---0-4---4-------------|------------2---2-0-----|
|------------------------|------------------------|0---0-4---4-----------3-|

| | | | | | | | | | | |
|------------------------|------------------2-3-4-|------------------------|
|------------------------|------0---0-4---4-------|------------0---0-1---1-|
|------------2---2---0-1-|2---2-------------------|0---0-4---4-------------|
|0---0-4---4-------4-----|------------------------|------------------------|

| | | | | | | | | | | |
|------------------------|------------------------|------------------------|
|2---2---2---------------|------------------------|------------------------|
|------------0---0-1---1-|2---2---0-1-2-2-2-2-2-2-|------------2-----0-----|
|------4---4-------------|------4-----------------|0---0-4---4-----0-----3-|

| | | | | | | | | | | |
|------------------------|------------------------|------------------------|
|------------------------|------------------------|------------2---2-2-----|
|------------2-----0-----|------------2-----0-----|------2---2---------2-1-|
|0---0-4---4-----0-----3-|0---0-4---4-----0-----3-|0---0-------------------|

| | | | | | | | | | | |
|------------------0---0-|------------------0---0-|------------------------|
|------------2---2---4---|------------2---2---4---|------------------------|
|0---0-4---4-------------|0---0-4---4-------------|------------2---2-0-1-2-|
|------------------------|------------------------|0---0-4---4-------------|

| | | | | | | | | | | |
|------------------------|------------------------|------------------------|
|------------------------|------0---0-4---4---4---|------------2---2---0-1-|
|------------2---2---0-1-|2---2-------------2---2-|0---0-4---4-------4-----|
|0---0-4---4-------4-----|------------------------|------------------------|

| | | | | | | | | | | |
|------------------------|------------------------|------------------------|
|2---2-------------------|------------------------|------------------------|
|------------0---0-1---2-|--------0-1-2-2-2-2-2-2-|------------2-----0-0---|
|------4---4-------------|0---0-4-----------------|0---0-4---4-----0-----3-|

| | | | | | | | | | | |
|------------------------|------------------------|------------------------|
|------------------------|------------------------|--------------0-1-2-----|
|------------2---2-0-1-2-|------------2---2-0-1-2-|--------0-1-2-------2-1-|
|0---0-4---4-------------|0---0-4---4-------------|0---0-4-----------------|

| | | | | | | | | | | |
|------------------------|------------------------|------------------------|
|------------------------|------------------------|------------------0-1-2-|
|0-----------------------|0-----------------------|------------2---2-------|
|------------------------|------------------------|0---0-4---4-------------|

| | | | | | | | | | | |
|------------------------|------------------------|------------------------|
|------------------------|------------------------|------------2---2-5-2---|
|------------0-----1---1-|2---2-2---2-2---2-2---2-|0---0-4---4-----------2-|
|0---0-4---4-----4-------|------------------------|------------------------|

| | | | | | | | | | | |
|------------------------|------------------------|------------------------|
|------------------------|--------------------0-1-|------------------------|
|------------------------|--------0-1-2---2-2-----|------------2---2-4---2-|
|0---0-4---4-3---3-2---2-|0---0-4-----------------|0---0-4---4-------------|

| | | | | | | | | | | |
|------------------------|------------------------|------------------------|
|------------------------|------------------------|------------------------|
|------------2---2-0-1-2-|------------2---2-0-----|------------2---2-0-----|
|0---0-4---4-------------|0---0-4---4-----------3-|0---0-4---4---------3-4-|

| | | | | | | | | | | |
|------------------0-1-2-|------------------------|------------------------|
|------------2---2-------|------------2---2---0-1-|2-----------------------|
|0---0-4---4-------------|0---0-4---4-------4-----|------------2-----0-----|
|------------------------|------------------------|----0-4---4-----0-------|

| | | | | | | | | | | |
|------------------------|------------------------|------------------------|
|------------------------|------1---1-4---4-------|------------------------|
|------------2---2---0-1-|2---2-------------4-2-1-|0-----------------------|
|0---0-4---4-------4-----|------------------------|------------------------|



It was hard to get it all so please, rate this tab !

Created with TablEdit http://www.tabledit.com/

Taken from The BassMasta -- http://www.tabs-database.com



Get this song at amazon.com      Ebay     Ringtones Ringtones  


Learn to play: Songwriting, Piano, Harmonica, Guitar
Also available at Muzikum: Led Zeppelin - You shook me lyrics

Related Led Zeppelin Bass Tabs

Wearing And Tearing bass
Walters Walk bass
Down By The Seaside bass
Nobody's Fault But Mine bass
We're Gonna Groove bass
Kashmir bass
Thats The Way bass
Out On The Tiles (complete) bass
Moby Dick - 110% Correct Without A Doubt bass
Out On The Tiles bass
Immigration Song bass
Black Dog(100% Correct) bass
Most High bass
The Ocean (complete) bass
Hots On For Nowhere bass
Baby Come On Home bass
Achillies Last Stand bass
Rock And Roll Correct Version bass
What Is And What Should Never Be bass
Rock And Roll bass


Guitar Tabs









All tabs are property and copyright of their owners. All tabs provided for educational purposes only. Privacy Policy, DMCA