Led Zeppelin

Whole Lotta Love Tabs



More from Led Zeppelin

Led Zeppelin Tabs
Led Zeppelin Chords
Led Zeppelin Bass
Led Zeppelin Lyrics

 Gtr. 1     Intro:    

e-|--------------------------|-----------------------------------|-

B-|--------------------------|-----------------------------------|-

G-|--------------------------|-----------------------------------|-

D-|----------------0)----0)--|--9-------9-------9-------9--------|-

A-|----------------5-----5---|--7-------7-------7-------7--------|-

E-|-------------7-----7------|--0-0-0-0-0-0-0-0-0-0-0-0-0-0-0-0--|-

* Bend 1/4 step



e-|-----------------------------------|-----------------------------------|-

B-|-----------------------------------|-----------------------------------|-

G-|-----------------------------------|-----------------------------------|-

D-|--9-------9-------9-9----0)----0)--|--9-------9-------9-------9--------|-

A-|--7-------7-------7-7----5-----5---|--7-------7-------7-------7--------|-

E-|--0-0-0-0-0-0-0-0-0-0-7-----7------|--0-0-0-0-0-0-0-0-0-0-0-0-0-0-0-0--|-



Verse:

e-|-----------------------------------|-----------------------------------|-

B-|-----------------------------------|-----------------------------------|-

G-|-----------------------------------|-----------------------------------|-

D-|--9-------9-------9-9----0)----0)--|--9-------9-------9------0)----0)--|-

A-|--7-------7-------7-7----5-----5---|--7-------7-------7------5-----5---|-

E-|--0-0-0-0-0-0-0-0-0-0-7-----7------|--0-0-0-0-0-0-0-0-0-0-7-----7------|-



e-|-----------------------------------|-----------------------------------|-

B-|-----------------------------------|-----------------------------------|-

G-|-----------------------------------|-----------------------------------|-

D-|--9-------9-------9------0)----0)--|--9-------9-------9------0)----0)--|-

A-|--7-------7-------7------5-----5---|--7-------7-------7------5-----5---|-

E-|--0-0-0-0-0-0-0-0-0-0-7-----7------|--0-0-0-0-0-0-0-0-0-0-7-----7------|-



e-|-----------------------------------|-----------------------------------|-

B-|-----------------------------------|-----------------------------------|-

G-|-----------------------------------|-----------------------------------|-

D-|--9-------9-------9------0)----0)--|--9-------9-------9------0)----0)--|-

A-|--7-------7-------7------5-----5---|--7-------7-------7------5-----5---|-

E-|--0-0-0-0-0-0-0-0-0-0-7-----7------|--0-0-0-0-0-0-0-0-0-0-7-----7------|-



e-|-----------------------------------|-----------------------------------|-

B-|-----------------------------------|-----------------------------------|-

G-|-----------------------------------|-----------------------------------|-

D-|--9-------9-------9------0)----0)--|--9-------9-------9------0)----0)--|-

A-|--7-------7-------7------5-----5---|--7-------7-------7------5-----5---|-

E-|--0-0-0-0-0-0-0-0-0-0-7-----7------|--0-0-0-0-0-0-0-0-0-0-7-----7------|-



Chorus:

e-|-----------------------------------|---------------------------------|-

B-|-----------------------------------|----------------------7--7-7--7--|-

G-|-----------------------------------|----------------------7--7-7--7--|-

D-|--9-------9-------9------0)----0)--|--9-------9-------9---7--7-7--7--|-

A-|--7-------7-------7------5-----5---|--7-------7-------7---5--5-5--5--|-

E-|--0-0-0-0-0-0-0-0-0-0-7-----7------|--0-0-0-0-0-0-0-0-0-0------------|-



Gtr. 1

e-|---------------------------------|---------------------------------|-

B-|----------------------7--7-7--7--|----------------------7--7-7--7--|-

G-|----------------------7--7-7--7--|----------------------7--7-7--7--|-

D-|--9-------9-------9---7--7-7--7--|--9-------9-------9---7--7-7--7--|-

A-|--7-------7-------7---5--5-5--5--|--7-------7-------7---5--5-5--5--|-

E-|--0-0-0-0-0-0-0-0-0-0------------|--0-0-0-0-0-0-0-0-0-0------------|-

| | |

| Gtr. 2 w/ slide | |

e-|---------------------------------|---------------------------------|-

B-|---------------------------------|---------------------------------|-

G-|------9-------------------------|------9-------------------------|-

D-|------9-------------------------|------9-------------------------|-

A-|---------------------------------|---------------------------------|-

E-|---------------------------------|---------------------------------|-



e-|---------------------------------|-----------------------------------|-

B-|----------------------7--7-7--7--|-----------------------------------|-

G-|----------------------7--7-7--7--|-----------------------------------|-

D-|--9-------9-------9---7--7-7--7--|--9-------9-------9------0)----0)--|-

A-|--7-------7-------7---5--5-5--5--|--7-------7-------7------5-----5---|-

E-|--0-0-0-0-0-0-0-0-0-0------------|--0-0-0-0-0-0-0-0-0-0-7-----7------|-

| | |

| | |

e-|---------------------------------|-----------------------------------|-

B-|---------------------------------|-----------------------------------|-

G-|------9-------------------------|------9---------------------------|-

D-|------9-------------------------|------9---------------------------|-

A-|---------------------------------|-----------------------------------|-

E-|---------------------------------|-----------------------------------|-



Repeat from verse



Guitar solo:





Gtr. 1

e-|----------------------------------------------------------|-

B-|----------------------------------------------------------|-

G-|----------------------------------------------------------|-

D-|--2--2----------------------------------------------------|-

A-|--2--2----------------------------------------------------|-

E-|--0--0----------------------------------------------------|-

| |

| Gtr. 2 1 1 |

e-|--------------------12------------------------------------|-

B-|--------------)-12------15p12----------------------)~~~~--|-

G-|------------14-----------------15p14p12--14--12--14-------|-

D-|----------------------------------------------------------|-

A-|----------------------------------------------------------|-

E-|----------------------------------------------------------|-





e-|--------------------------------------------------------|-

B-|--------------------------------------------------------|-

G-|--------------------------------------------------------|-

D-|---2---2------------------------------------------------|-

A-|---2---2------------------------------------------------|-

E-|---0---0------------------------------------------------|-

| |

| |

e-|--------------------------------------------------------|-

B-|-----------------3--------------------------------------|-

G-|------------2/4-----4p2p0--4p2p0------------------------|-

D-|----------------------------------2p0-----2p0-----------|-

A-|---------------------------------------2-------2-0h2----|-

E-|--------------------------------------------------------|-



e-|-----------------------------------------------|-

B-|-----------------------------------------------|-

G-|-----------------------------------------------|-

D-|---2---2---------------------------------------|-

A-|---2---2---------------------------------------|-

E-|---0---0---------------------------------------|-

| |

| 1 1 1 1 |

e-|--------------------12----)---)---15---)~~~----|-

B-|--------------)-12------15--15-------15--------|-

G-|------------14---------------------------------|-

D-|-----------------------------------------------|-

A-|-----------------------------------------------|-

E-|-----------------------------------------------|-



e-|----------------------------------------------------|-

B-|----------------------------------------------------|-

G-|----------------------------------------------------|-

D-|---2---2--------------------------------------------|-

A-|---2---2--------------------------------------------|-

E-|---0---0--------------------------------------------|-

| |

| 2 |

e-|--------------------)\'\'\'\'\'\'\'\'----------------------|-

B-|------------17----20------------17------20p17~~~----|-

G-|------------------------------------18--------------|-

D-|----------------------------------------------------|-

A-|----------------------------------------------------|-

E-|----------------------------------------------------|-



e-|-----------------------------------------------------|-

B-|-----------------------------------------------------|-

G-|-----------------------------------------------------|-

D-|--2---2----------------------------------------------|-

A-|--2---2----------------------------------------------|-

E-|--0---0----------------------------------------------|-

| 1 |

| ) |

e-|----------------19----19--18--17---------------------|-

B-|------------17--------------------20p17--20p17~~~----|-

G-|-----------------------------------------------------|-

D-|-----------------------------------------------------|-

A-|-----------------------------------------------------|-

E-|-----------------------------------------------------|-



e-|---------------------------------------------------|-

B-|---------------------------------------------------|-

G-|---------------------------------------------------|-

D-|--2---2--------------------------------------------|-

A-|--2---2--------------------------------------------|-

E-|--0---0--------------------------------------------|-

| |

| 1/2 1/2 1/2 1 |

e-|----------------------)---)---)----)--19-----------|-

B-|------------17--19--19--19--19---19-------17~~~----|-

G-|---------------------------------------------------|-

D-|---------------------------------------------------|-

A-|---------------------------------------------------|-

E-|---------------------------------------------------|-



Then play verse and chorus again, then there is a

break with no instruments just vocals. At the end

of the break play B5 and A5.



At the end the main riff changes to this, but the

main riff is still played sometimes.



e-|---------------------------|---------------------------------|-

B-|---------------------------|---------------------------------|-

G-|---------------------------|---------------------------------|-

D-|-----------------0)-----7--|--9-------9-------9-----0)----7--|-

A-|-----------------5------5--|--7-------7-------7-----5-----5--|-

E-|--------------7------7-----|--0-0-0-0-0-0-0-0-0-0-7----7-----|-



e-|----------------------------------|----------------------------------|-

B-|----------------------------------|----------------------------------|-

G-|----------------------------------|----------------------------------|-

D-|--9-------9-------9------0)----7--|--9-------9-------9------0)----7--|-

A-|--7-------7-------7------5-----5--|--7-------7-------7------5-----5--|-

E-|--0-0-0-0-0-0-0-0-0-0-7-----7-----|--0-0-0-0-0-0-0-0-0-0-7-----7-----|-



Get this song at amazon.com      Ebay     Ringtones Ringtones  


Learn to play: Songwriting, Piano, Harmonica, Guitar
Also available at Muzikum: Led Zeppelin - Whole lotta love lyrics

Related Led Zeppelin Tabs

Trampled Underfoot Bass tabs
Ramble On (detailed Solo) tabs
Stairway To Heaven 100% Correct tabs
In The Evening tabs
Gallows Pole ( Mandolin ) tabs
I Cant Quit You tabs
The Crunge tabs
The Girl I Love She Got Long Black Wavy Hair tabs
Nobodys Fault But Mine tabs
Dazed And Confused Tsrts tabs
Your Time Is Gonna Come tabs
Black Dog Tab tabs
Dazed And Confused tabs
No Quarter(100%) tabs
Bron Yr Aur Stomp tabs
Thank You tabs
No Quarter Acoustic tabs
The Battle Of Evermore (chords) tabs
Boogie With Stu tabs
Moby Dick tabs


Guitar Tabs









All tabs are property and copyright of their owners. All tabs provided for educational purposes only. Privacy Policy, DMCA