Led Zeppelin

Whole Lotta Love Bass Tabs



More from Led Zeppelin

Led Zeppelin Tabs
Led Zeppelin Chords
Led Zeppelin Bass
Led Zeppelin Lyrics

Date: Thu, 21 Jul 2005 22:49:32 +0200 (CEST)
From: "[iso-8859-1] Jan Bj˙fffffffffff6rklund" 
Subject: l/led_zeppelin/whole_lotta_love.btab

Whole Lotta Love(jazz part live).btab
Led Zeppelin
TablEdited by Jan Bjorklund
Tuning : E A D G 	Time Signature: 4/4



 |       |       |       |        |       |       |       |        
|--------0-----------------------|--------------------------------|
|----------------4-------2-------|----------------0-------1-------|
|0---0---------------------------|0-------4-----------------------|
|--------------------------------|--------------------------------|

 |       |       |       |        |       |       |       |        
|--------------------------------|--------------------------------|
|2-------0-----------------------|--------------------------------|
|----------------4-------2-------|----------------0-------1-------|
|--------------------------------|0-------4-----------------------|

 |       |       |       |        |       |       |       |        
|--------------------------------|--------------------------------|
|--------------------------------|----------------0-------1-------|
|2---------------2---2---1-------|0-------4-----------------------|
|--------0-----------------------|--------------------------------|

 |       |       |       |        |       |       |       |        
|--------------------------------|--------------------------------|
|2-------------------------------|----------------0-------1-------|
|----------------0-------1-------|2-------4-----------------------|
|--------4-----------------------|--------------------------------|

 |       |       |       |        |       |       |       |        
|--------------------------------|--------0-----------------------|
|2-------0-----------------------|----------------4-------3-------|
|----------------4-------2-------|0-------------------------------|
|--------------------------------|--------------------------------|

 |       |       |       |        |       |       |       |        
|--------------------------------|--------------------------------|
|2-------0-----------------------|--------------------------------|
|----------------4-------3-------|2-------------------------------|
|--------------------------------|--------2-------1-------4-------|

 |       |       |       |        |       |       |       |        
|--------------------------------|--------------------------------|
|--------0-------4---------------|----------------0-------1-------|
|0-------------------------------|0-------4-----------------------|
|------------------------2-------|--------------------------------|

 |       |       |       |        |       |       |       |        
|--------------------------------|--------------------------------|
|2-------0-----------------------|--------------------------------|
|----------------4-------2-------|----------------0-------1-------|
|--------------------------------|0-------4-----------------------|

 |       |       |       |        |       |       |       |        
|--------------------------------|--------------------------------|
|--------------------------------|----------------0-------1-------|
|2---------------2-------1-------|0-------4-----------------------|
|--------0-----------------------|--------------------------------|

 |       |       |       |        |       |       |       |        
|--------------------------------|--------------------------------|
|2---2---------------------------|----------------0-------1-------|
|----------------0-------1-------|2-------4-----------------------|
|--------4-----------------------|--------------------------------|


Created with TablEdit http://www.tabledit.com/


Jan Bjorklund, Finland
Get this song at amazon.com      Ebay     Ringtones Ringtones  


Learn to play: Songwriting, Piano, Harmonica, Guitar
Also available at Muzikum: Led Zeppelin - Whole lotta love lyrics

Related Led Zeppelin Bass Tabs

Rock And Roll(studio Version) bass
Communication Breakdown bass
The Girl I Love She Got Long Black Wavy Hair bass
Kashmir (live) bass
Whole Lotta Love bass
Houses Of The Holy bass
You Shook Me bass
Dancing Days bass
Dazed And Confused Note For Note bass
Custard Pie bass
We're Gonna Groove bass
Hot Dog bass
Ozone Baby bass
Kashmir bass
Since Ive Been Loving You bass
Gallows Pole 99 9% Correct bass
Immigrant Song bass
The Rover bass
Most High bass
Lemon Song Bass Solo bass


Guitar Tabs









All tabs are property and copyright of their owners. All tabs provided for educational purposes only. Privacy Policy, DMCA