Led Zeppelin

White Summer/black Mountain Side Bass Tabs



More from Led Zeppelin

Led Zeppelin Tabs
Led Zeppelin Chords
Led Zeppelin Bass
Led Zeppelin Lyrics




DADG Tuning

bass enters at 1:37
G|----------------|----------------|----------------|----------------|
D|----------------|----------------|----------------|----------------|
A|5-5-------------|5-5-------------|5-5-------------|5-5-------------|
D|----------------|----------------|----------------|----------------|

G|----------------|----------------|----------------|----------------|
D|----------------|----------------|----------------|----------------|
A|5---------------|----------------|3-------5---3-2-|----5-----------|
D|----------------|----------------|----------------|7-------0-------|

G|----------------|----------------|----------------|----------------|
D|----------------|------5---------|----------------|----------------|
A|3-----3---------|2---------------|------------2-3-|5-----5-----5---|
D|----------------|------------3-4-|5-----5---------|----------------|

G|----------------|----------------|----------------|----------------|
D|----------------|------5---------|----------------|----------------|
A|3-----3---------|2---------------|------------2-3-|5-----5---------|
D|----------------|------------3-4-|5-----5---------|----------------|

G|----------------|----------------|----------------|----------------|
D|----------------|----------------|----------------|----------------|
A|5-----5---0-2--3|5-----5-----5---|3-------5---3-2-|----5-----------|
D|----------------|----------------|----------------|7-------0-------|



Get this song at amazon.com      Ebay     Ringtones Ringtones  


Learn to play: Songwriting, Piano, Harmonica, Guitar
More Led Zeppelin lyrics available at Muzikum

Related Led Zeppelin Bass Tabs

Hots On For Nowhere bass
Misty Mountain Hop bass
In The Light 4 String bass
Sick Again bass
Royal Orleans bass
Rock And Roll Correct Version bass
Most High bass
Rock And Roll(studio Version) bass
You Shook Me bass
Whole Lotta Of Love bass
Stairway To Heaven Intro On 6 String bass
Moby Dick-1000000% bass
The Ocean (100% Correct) bass
Darlene bass
California Girl bass
Achillies Last Stand bass
Thank You bass
Dryer Maker bass
Friends bass
Ramble On bass


Guitar Tabs









All tabs are property and copyright of their owners. All tabs provided for educational purposes only. Privacy Policy, DMCA