Led Zeppelin

When The Levee Breaks Bass Tabs



More from Led Zeppelin

Led Zeppelin Tabs
Led Zeppelin Chords
Led Zeppelin Bass
Led Zeppelin Lyrics



When The Levee Breaks

Led Zeppelin



Standard Tuning



G|----------------|----------------|----------------|----------------|

D|----------------|----------------|----------------|----------------|

A|----------------|----------------|----------------|----------------|

E|----------------|----------------|----------------|----------------|



G|----------------|----------------|----------------|----------------|

D|6---------------|6-----------8---|6---------------|6-----6-----8---|

A|--8-8---8---8-8-|--8-8---8-------|--8-8---8---8-8-|--8-8---8-8-----|

E|----------------|----------------|----------------|----------------|



G|----------------|----------------|----------------|----------------||

D|6---------------|6-----6-----8---|6---------------|6-----6-----8---||

A|--8-8---8---8-8-|--8-8---8-8-----|--8-8---8---8-8-|--8-8---8-8-----||

E|----------------|----------------|----------------|----------------||



D.S.

G|----------------|----------------|----------------|----------------|

D|6---------------|----------------|----------------|6-----6-----8---|

A|--8-8---8---6-7-|8---8---8---6-7-|8---8---8---8-8-|--8-8---8-8-----|

E|----------------|----------------|----------------|----------------|



G|----------------|----------------|----------------|----------------|

D|6---------------|----------------|----------------|6-----6-----8---|

A|--8-8---8---6-7-|8---8---8---6-7-|8---8---8---8---|--8-8---8-8-----|

E|----------------|----------------|----------------|----------------|



G|----------------|----------------|----------------|----------------|

D|6---------------|----------------|----------------|6-----6-----8---|

A|--8-8---8---6-7-|8---8---8---6-7-|8---8---8---8---|--8-8---8-8-----|

E|----------------|----------------|----------------|----------------|



G|----------------|----------------|----------------|----------------|

D|6---------------|6-----6-----8---|6---------------|----------------|

A|--8-8---8---8---|--8-8---8-8-----|--8-8---8---6-7-|8---8-8-8---6-7-|

E|----------------|----------------|----------------|----------------|



G|----------------|----------------|----------------|----------------|

D|----------------|6-----6-----8---|6---------------|----------------|

A|8-8-8---8---8---|--8-8---8-8-----|--8-8---8---6-7-|8---8-8-8---6-7-|

E|----------------|----------------|----------------|----------------|



G|----------------|----------------|----------------|----------------|

D|6---------------|----------------|----------------|6-----6-----8---|

A|--8-8---8---6-7-|8---8-8-8---6-7-|8---8---8---8-8-|--8-8---8-8-----|

E|----------------|----------------|----------------|----------------|



G|----------------|----------------|----------------|----------------|

D|6---------------|----------------|----------------|6-----6-----8---|

A|--8-8---8---6-7-|8---8---8---6-7-|8---8---8---8-8-|--8-8---8-8-----|

E|----------------|----------------|----------------|----------------|



G|----------------|----------------|----------------|----------------|

D|6---------------|6-----6-----8-8-|6---6-6---------|----------------|

A|--8-8---8---8---|--8-8---8-8-----|----------------|--------------6-|

E|----------------|----------------|--------------4-|6-6-6-6-8-8-----|



G|----------------|----------------|----------------|----------------|

D|--6-------------|--6-------------|----------------|----------------|

A|6-------6-8-----|6-------6-8-----|----------------|------------3-6-|

E|----------------|------------6-8-|4---4-----1-4-5-|6-6-6-6---4-----|



G|----------------|----------------|----------------|----------------||

D|--6-------------|--6-------------|----------------|----------------||

A|6-------6-8-----|6-------6-8-----|----------------|----------------||

E|----------------|----------------|----------------|----------------||



G| ----------------|----------------|----------------|----------------|

D|o6---------------|----------------|6---------------|6-----6-----8---|

A|o--8-8-8-8---8-8-|6-8-8-8-8---8-8-|--8-8---8---8-8-|--8-8---8-8-----|

E| ----------------|----------------|----------------|----------------|

If it keeps on rainin'....



G|----------------|----------------|----------------|----------------|

D|6---------------|----------------|----------------|6-----6-----8---|

A|--8-8---8---6-7-|8---8---8---6-7-|8---8---8---8---|--8-----8-8-----|

E|----------------|----------------|----------------|----------------|



to Coda

G|----------------|----------------|----------------|----------------|

D|6---------------|----------------|----------------|6-----6-----8---|

A|--8-8-8-8---6-7-|8---8-8-8---6-7-|8-8-8---8---8-8-|--8-8---8-8-----|

E|----------------|----------------|----------------|----------------|

__________________________________ _________________________________

1. | 2.

G|----------------|---------------- ||----------------|----------------|

D|6---------------|6-----6-----8---o||6---------------|6-----6-----8-8-|

A|--8-8---8---8-8-|--8-8---8-8-----o||--8-8---8---8-8-|--8-8---8-8-----|

E|----------------|---------------- ||----------------|----------------|



G|----------------|----------------|----------------|----------------|

D|6---6---------6-|8---------------|--6-------------|--6-------------|

A|----------------|--8-----------6-|6-------6-8-----|6-------6-8-----|

E|----------------|----6-6-6-7-8---|----------------|------------6-8-|



G|----------------|----------------|----------------|----------------|

D|----------------|----------------|--6-------------|--6-------------|

A|----------------|--------------6-|6-------6-8-----|6-------6-8-----|

E|4-4-4-4-4-6-8-7-|6-6-6-6-8-6-8---|----------------|----------------|



G|----------------|----------------|----------------|----------------|

D|----------------|----------------|----------------|----------------|

A|(8)-------------|(8)-------------|(8)-------------|(8)-------------|

E|----------------|----------------|----------------|----------------|



G|----------------|----------------|----------------|----------------|

D|----------------|----------------|----------------|----------------|

A|8-----8-8-------|----------------|----------------|6---8-8-8-8-8-6-|

E|----------------|8---------------|6-----6-6---8---|----------------|



G|----------------|----------------|----------------|----------------|

D|----------------|----------------|----------------|8---10--101010--|

A|8-8-8---8---8-10|101010101010106-|8---8-8-8---10--|6---8---8-8-8-6-|

E|----------------|8-8-8-8-8-8-8---|6---6-6-6---8---|----------------|



G|----------------|----------------|----------------|----------------|

D|101010--10------|----------------|----------------|8---10--101010--|

A|8-8-8---8---8---|1010101010----6-|8-8-8---8---10--|6---8---8-8-8---|

E|----------------|8-8-8-8-8-------|6-6-6---6---8---|----------------|



G|----------------|----------------|----------------|----------------|

D|1010101010------|----------------|----------------|8---10----------|

A|8-8-8-8-8---8---|1010101010----6-|8-8-8-8-8---10--|6---8---8-------|

E|--------------6-|8-8-8-8-8-------|6-6-6-6-6---8---|----------6-7-8-|



D.S. al Coda

G|----------------|----------------|----------------|----------------||

D|1010101010------|----------------|----------------|8---10--10----0-||

A|8-8-8-8-8-----8-|1010101010----6-|8-8-8-8-8---10--|6---8---8-------||

E|----------------|8-8-8-8-8-------|6-6-6-6-6---8---|----------------||



CODA

G|----------------|----------------|----------------|----------------|

D|6---------------|6-----6-----8---|6---------------|----------------|

A|--8-8---8---8-8-|--8-8---8-8-----|--8-8---8---6-7-|8---8---8---6-7-|

E|----------------|----------------|----------------|----------------|



G|----------------|----------------|----------------|----------------|

D|----------------|6-----6-----8---|6---------------|----------------|

A|8---8---8---8-8-|--8-8---8-8-----|--8-8---8---6-7-|8---8-8-8---6-7-|

E|----------------|----------------|----------------|----------------|

All last night....



G|----------------|----------------|----------------|----------------|

D|----------------|6-----6-----8---|6---------------|----------------|

A|8---8---8---8-8-|--8-8---8-8-----|--8-8---8---6-7-|8-8-8-8-8---6-7-|

E|----------------|----------------|----------------|----------------|



G|----------------|----------------|----------------|----------------|

D|----------------|6-----6-----8---|6---------------|6-----6-----8-8-|

A|8---8---8---8-8-|--8-8---8-8-----|--8-8---8---8-8-|--8-8---8-8-----|

E|----------------|----------------|----------------|----------------|



G| ----------------|----------------|----------------|---------------- |

D|o6---6---6---6-7-|8---------------|--6-------------|--6-------------o|

A|o----------------|--8-----------6-|6-------6-8-----|6-------6-8-----o|

E| ----------------|----6-6-6-7-8---|----------------|------------6-8- |



G|----------------|----------------|----------------|----------------|

D|6---------------|----------------|----------------|----------------|

A|--8-8-8-8-----8-|8-8-8-8-8-----8-|8---8-8-8-----8-|8---8-----------|

E|----------------|----------------|----------------|------------8---|



G|----------------|----------------|----------------|----------------|

D|----------------|----------------|----------------|----------------|

A|8---8---8---8-6-|----------------|----------------|6---8---8-6---6-|

E|----------------|8-8-8-8-8-----8-|6---6-6-6---8---|------------8---|



G|----------------|----------------|----------------|----------------|

D|--10101010------|----------------|----------------|8---10--10------|

A|8-8-8-8-8---8-10|1010101010----8-|8-8-8-8-8---10--|6---8---8-------|

E|----------------|8-8-8-8-8-----6-|6-6-6-6-6---8---|--------------8-|



G|----------------|----------------|----------------|----------------|

D|1010101010------|----------------|----------------|8---10----------|

A|8-8-8-8-8-------|1010101010------|8-8-8-8-8---10--|6---8-----------|

E|--------------8-|8-8-8-8-8-----6-|6-6-6-6-6---8---|--------8-5-6-7-|



G|----------------|----------------|----------------|----------------|

D|1010101010------|----------------|----------------|8---10--101010--|

A|8-8-8-8-8-----8-|1010101010------|8-8-8-8-8---10--|6---8---8-8-8-10|

E|----------------|8-8-8-8-8-----6-|6-6-6-6-----8---|----------------|



G|----------------|----------------|----------------|----------------|

D|1010101010------|----------------|----------------|8---10--------6-|

A|8-8-8-8-8-----8-|1010--1010------|8-8---8-8---10--|6---8---8-8-8---|

E|--------------6-|8-8-8-8-8-----6-|6-6---6-6---8---|----------------|



G|----------------|----------------|----------------|----------------|

D|6---------------|6---------------|6---------------|6-----6-----8---|

A|--8-8-8-8---8-8-|--8-8-8-8---8-8-|--8-8-8-8---8-8-|--8-8---8-8-----|

E|----------------|----8-8---------|----------------|----------------|

Goin' I'm goin' to



G|----------------|----------------|----------------|----------------|

D|6---------------|6---------------|6---------------|6-----6-----8---|

A|--8-8-8-8---8-8-|--8-8-8-8---8-8-|--8-8-8-8---8-8-|--8-8---8-8-----|

E|----------------|----------------|----------------|----------------|

Chicago....



G|----------------|----------------|----------------| ----------------|

D|----------------|----------------|----------------|o----------------|

A|----------------|----------------|----------------|o------------1---|

E|4-1-1-1-1---1-1-|4-1-1-1-1---1-1-|4-1-1-1-1---1-1-| 4-1-1-1-1-1-----|



G|----------------|----------------|----------------|----------------|

D|----------------|----------------|----------------|----------------|

A|----------------|----------------|----------------|------------1---|

E|4-1-1-1-1---1-1-|4-1-1-1-1---1-1-|4-1-1-1-1---1-1-|4-1-1-1-1-1-----|

_________________________________

|1.

G|----------------|----------------|----------------|----------------|

D|----------------|----------------|----------------|----------------|

A|----------------|----------------|----------------|------------1---|

E|4-1-1-1-1---1-1-|4-1-1-1-1---1-1-|4-1-1-1-1---1-1-|4-1-1-1-1-1-----|

___________________________________________________________________



G|----------------|----------------|----------------|----------------|

D|----------------|----------------|----------------|----------------|

A|----------------|------------1---|----------------|------------1---|

E|4-1-1-1-1---1-1-|4-1-1-1-1-1-----|4-1-1-1-1---1-1-|4-1-1-4-1-1-----|

____________________________________________________________________

|

G|----------------|----------------|----------------|---------------- |

D|----------------|----------------|----------------|----------------o|

A|----------------|--------6-------|----------------|------------1---o|

E|4-1-1-1-1---1-1-|4-1-1-4---4-6---|1-1-1-1-1---1-1-|4-1-1-4-1-1----- |

________________

|2.

G|----------------|----------------|----------------|----------------|

D|----------------|----------------|----------------|----------------|

A|----------1-2-3-|----------------|------------1---|----------------|

E|4-1---4-4-------|4-1-1-1-1---1-1-|4-1-1-4-1-1-----|4-1-1-1-1---1-1-|



G|----------------|----------------|----------------|

D|----------------|----------------|----------------|

A|----------1-2-3-|------------1-1-|------------1---|

E|1-1-1-1-4-------|4-1-1-1-1-------|4-1-1-4-1-1-----|



G|----------------|---------10-----|

D|----------------|----------------|

A|----------------|--------8-------|

E|4-1-1---1---1---|----------------|



Led Zeppelin Is #1 BandAdded by tabs-database.com and our distinguished partners
Get this song at amazon.com      Ebay     Ringtones Ringtones  


Learn to play: Songwriting, Piano, Harmonica, Guitar
More Led Zeppelin lyrics available at Muzikum

Related Led Zeppelin Tabs

Poor Tom Bass tabs
Dancing Days Bass tabs
Stair Way To Heaven tabs
Royal Orleans tabs
Bring It On Home tabs
Led Zeppelin 4 Album tabs
Stairway To Heaven Solo tabs
Hey Lady tabs
Carouselambra Bass tabs
Babe Im Gonna Leave You Remasters tabs
Black Dog3 tabs
Hots On For Nowhere tabs
What Is And Should Never be tabs
Black Dog (correct Main Riff) tabs
Wanton Song tabs
What Is And What Should Never Be tabs
Yallah tabs
Black Dog2 tabs
Kashmir tabs
The Immagrant Song tabs


Guitar Tabs









All tabs are property and copyright of their owners. All tabs provided for educational purposes only. Privacy Policy, DMCA