Led Zeppelin

What Is And What Should Never Be Bass Tabs



More from Led Zeppelin

Led Zeppelin Tabs
Led Zeppelin Chords
Led Zeppelin Bass
Led Zeppelin Lyrics



What makes Led Zeppelin tunes so attractive to the ear ? Most will immediately say it's Jimmy

Page's progressive blues riffs. But remove the bass lines from the songs and see just

empty they become. John Paul Jones was the best all-around and technical musician in the

and was probably the only band member to take his music seriously enough not to be completely

plastered during a concert. Lurking back in the shadows of the stage juggling instruments,

Jones kept the ship afloat at the price of being under-appreciated and ultimately abandoned

by the "devious duo."



Tabbed by: BASSteve



Tuning: EADG (fretless bass)



Time signature: 2/4



r = rest (listen for duration)

h = hammer on

p = pull off

/ = slide (low to high)

\ = slide (high to low)

^ = bend (listen for pitch and release charateristics)

()= note inside parenthesis not plucked or hammered on

{}= note inside pointed parenthesis still ringing from previous measure



* My tabs are meant to be read in conjunction with listening to the song. In other words,

there are no specific notations to account for note / rest duration. However, you will

that I’ve made an attempt to strategically space the notes and rests within their

measures

in order to represent the appropriate durations.





“And if I say_____ to you tomorrow ...”

G|------------------------|------------------------|------------------------|

D|------------------------|------------------------|7-----------------------|

A|r-----------------------|------------12--7-h-9---|----9---7---0--------0--|

E|------------------------|12^---------------------|------------------------|





|------------------------|--------9---------------|------------------------|

|------------------------|9-h-11-----11\(10)r--9--|{9}---------7-----------|

|4--r-----0--7-----r-----|------------------------|----------------7-h-9---|

|------------------------|------------------------|------------------------|



|------------------------|------------------------|--------9---------------|

|7-----------------------|------------------------|9-h-11-----11\(10)r--9--|

|----9---7---0---------0-|4--4--r---0--7-----r----|------------------------|

|------------------------|------------------------|------------------------|





|------------------------|------------------------|------------------------|

|{9}---------7-----------|7-----------------------|------------------------|

|----------------7-h-9---|----9---7---0--------0--|4-----4--5--7--------r--|

|------------------------|------------------------|------------------------|





|--------9---------------|------------------------|------------------------|

|9-h-11-----11\(10)r--9--|{9}---------7-----------|7-----------------------|

|------------------------|----------------7-h-9---|----9---7---0--------0--|

|------------------------|------------------------|------------------------|





|------------------------|------------------------|------------------------|

|------------------------|------------------------|------------------------|

|4--3--2--1--0-r---0--0--|12--0-r--0--10--0--0--0-|10--0-r---0--9--0--0--0-|

|------------------------|------------------------|------------------------|





|------------------------|------------------------|------------------------|

|------------------------|------------------------|------------------------|

|9--0-r---0--0--0--------|------------0-r---0--0--|12--0-r--0--10--0--0--0-|

|------------------10----|9-----7--r--------------|------------------------|





|------------------------|------------------------|------------------------|

|------------------------|------------------------|------------------------|

|10--0-r---0--9--0--0--0-|9--0-r---------0--------|------------------------|

|------------------------|------------------10----|9-----7-----7-r---7--7--|





|------------------------|------------------------|------------------------|

|9-----------7-----------|7-----------6-----------|6-----------------------|

|------------------------|------------------------|------------------7-----|

|---7-r---7-----7--7--7--|---7-r---7-----7--7--7--|---5-r------7--7--------|





|------------------------|------------------------|------------------------|

|------------------------|------------------------|------------------------|

|6-----4--r--------------|------------------------|------------------------|

|------------2-----------|{2}---------------------|------------5-----------|



[2x]

|------------------------|------------------------|------------------------|

|------------------------|------------------------|------------------------|

|------------------------|------------------------|------------------------|

|{5}---------------7^----|-----3------0-----------|{0}---------------------|





“And if you say_____ to me tomorrow ...”

|------------------------|------------------------|------------------------|

|------------------------|------------------------|7-----------------------|

|r-----------------------|------------12--7-h-9---|----9---7---0--------0--|

|------------------------|12^---------------------|------------------------|





|------------------------|--------9---------------|------------------------|

|------------------------|9-h-11-----11\(10)r--9--|{9}---------7-----------|

|4--4--r--0--7-----r-----|------------------------|----------------7-h-9---|

|------------------------|------------------------|------------------------|





|------------------------|------------------------|--------9---------------|

|7-----------------------|------------------------|9-h-11-----11\(10)r--9--|

|----9---7---0---------0-|4--r------0--7-----r----|------------------------|

|------------------------|------------------------|------------------------|





|------------------------|------------------------|------------------------|

|{9}---------7-----------|7-----------------------|------------------------|

|----------------7-h-9---|----9---7---0--------0--|4--4--r--0--7-----r-----|

|------------------------|------------------------|------------------------|





|--------9---------------|------------------------|------------------------|

|9-h-11-----11\(10)r--9--|{9}---------7-----------|7-----------7-----------|

|------------------------|----------------7-h-9---|----9---7------------5--|

|------------------------|------------------------|------------------------|





|------------------------|------------------------|------------------------|

|------------------------|------------------------|------------------------|

|4--3--2--1--0-r---0--0--|12--0-r--0--10--0--0--0-|10--0-r---0--9--0--0--0-|

|------------------------|------------------------|------------------------|





|------------------------|------------------------|------------------------|

|------------------------|------------------------|------------------------|

|9--0-r------0--0--------|------------0-----0--0--|12--0-r--0--10--0--0--0-|

|------------------10----|0-----7-----------------|------------------------|





|------------------------|------------------------|------------------------|

|------------------------|------------------------|------------------------|

|10--0-r---0--9--0--0--0-|9--0-r------0--0--------|------------------------|

|------------------------|------------------10----|9-----7-----7-r---7--7--|





|------------------------|------------------------|------------------------|

|9-----------7-----------|7-----------6-----------|6-----------------------|

|------------------------|------------------------|------------------7-----|

|---7-r---7-----7--7--7--|---7--7--7-----7--7--7--|---5-r------7--7--------|





|------------------------|------------------------|------------------------|

|------------------------|------------------------|------------------------|

|6-----4--r--------------|------------------------|------------------------|

|------------2-----------|{2}---------------------|{2}---2/----5-----------|



[2x]

|------------------------|------------------------|------------------------|

|------------------------|------------------------|------------------------|

|----------------------7-|-9----------------------|------------------------|

|{5}------------7/-9-----|-----3^-----0-----------|{0}---------------------|





(Guitar Solo)

|------------------------|------------------------|------------------------|

|------------------------|------------------------|7-----------------------|

|r-----------------------|------------12--7-h-9---|----9---7---0--------0--|

|------------------------|12^---------------------|------------------------|





|------------------------|9-----------------------|------------------------|

|---------------9-9-h-11-|-----11\(10)r-9---------|6--9-r---6--7-----------|

|4--5----6--7------------|------------------------|------------------------|

|------------------------|------------------------|------------------------|





|------------------------|------------------------|9------11/--13----------|

|------------7-----------|---------------9-9-h-11-|------------------------|

|7/----(9)---------9--7--|4---5---6/-(7)----------|------------------------|

|------------------------|------------------------|------------------------|





|11--9-------------------|------------------------|------------------------|

|-------11--9--7---------|7---6-------------------|------------------------|

|------------------------|------------9---7-------|------------------------|

|------------------------|------------------------|5-----5--7--0-----0-----|





|------------------------|------------------------|------------------------|

|------------------------|------------7-----------|----------9/-11-r-9--7--|

|---------------7--------|---7-h-9^---------------|------------------------|

|4--7-----7--9-----------|------------------------|------------------------|





|------------------------|------------------------|------------------------|

|------------------------|------------------------|------------------------|

|9--7--------0--0--0-----|12--0--0--0-10--0--0--0-|10--0-r---0--9--0--0--0-|

|------9--7--------------|------------------------|------------------------|





|------------------------|------------------------|------------------------|

|------------------------|------------------------|------------------------|

|9--0-r------0--0--------|------------0-----0--0--|12--0-r--0--10--0--0--0-|

|------------------10----|9-----7-----------------|------------------------|





|------------------------|------------------------|------------------------|

|------------------------|------------------------|------------------------|

|10--0-r---0--9--0--0--0-|9--0-r------0--0--------|------------------------|

|------------------------|------------------10----|9--7--5-----7-r---7--7--|





|------------------------|------------------------|------------------------|

|9-----------7-----------|7-----------6-----------|6-----------------------|

|------------------------|------------------------|------------------7-----|

|---7-r---7-----7--7--7--|---7-r---7-----7--7--7--|---5-r------7--7--------|





|------------------------|------------------------|------------------------|

|------------------------|------------------------|------------------------|

|6-----4--r--------------|------------------------|------------------------|

|------------2-----------|{2}---------------------|---------2--5-----------|



[2x]

|------------------------|------------------------|------------------------|

|------------------------|-------5----------------|------------------------|

|-------------------7----|------------------------|------------------------|

|{5}---------7-h-9-------|7-h-9-------0-----------|{0}---------------------|





“So if you wake____up with the sunrise ...”

|------------------------|------------------------|------------------------|

|------------------------|------------------------|-------7----------------|

|r-----------------------|------------12----------|7-h-9-----9----4--4-----|

|------------------------|--12^-------------------|------------------------|





|------------------------|--------9---------------|------------------------|

|------------------------|9-h-11-----11\(10)r--9--|{9}---------7-----------|

|5--5--r--6--7-----r-----|------------------------|----------------7-h-9---|

|------------------------|------------------------|------------------------|





|------------------------|------------------------|--------9---------------|

|7-----------------------|------------------------|9-h-11-----11\(10)r--9--|

|----9---7---0------0--0-|4--r------0--7-----r----|------------------------|

|------------------------|------------------------|------------------------|





|------------------------|------------------------|------------------------|

|{9}---------7-----------|7-----------------------|------------------------|

|----------------7-h-9---|----9---7---0-----0--0--|4--4--r--0--7--r--------|

|------------------------|------------------------|------------------------|





|--------9---------------|------------------------|------------------------|

|9-h-11-----11\(10)r--9--|{9}---------7-----------|7-----------7-----------|

|------------------------|----------------7-h-9---|----9---7------------5--|

|------------------------|------------------------|------------------------|





|------------------------|------------------------|------------------------|

|------------------------|------------------------|------------------------|

|4--3--2--1--0-r---0--0--|12--0-r--0--10--0--0--0-|10--0-r---0--9--0--0--0-|

|------------------------|------------------------|------------------------|





|------------------------|------------------------|------------------------|

|4-----------------------|------------------------|------------------------|

|0--0-r------0--0--------|------------0-----0--0--|12--0-r--0--10--0--0--0-|

|------------------10----|9-----7-----------------|------------------------|





|------------------------|------------------------|------------------------|

|------------------------|------------------------|------------------------|

|10--0-r--0--10--0--0--0-|9--0-r------0--0--------|------------------------|

|------------------------|------------------10----|9-----7-----7-r---7--7--|





|------------------------|------------------------|------------------------|

|9-----------7-----------|7-----------6-----------|6-----------------------|

|------------------------|------------------------|------------------7-----|

|---7-r---7-----7--7--7--|---7-r---7-----7--7--7--|---5-r------7--7--------|





|------------------------|------------------------|------------------------|

|------------------------|------------------------|------------------------|

|6-----4--r--------------|------------------------|------------------------|

|------------2-----------|{2}---------------------|------------5-----------|



[2x]

|------------------------|------------------------|------------------------|

|------------------------|-------5----------------|------------------------|

|-------------------7----|------------------------|------------------------|

|{5}---------7-h-9-------|7-h-9-------0-----------|{0}---------------------|





(Guitar Interlude –7 Bars)

|------------------------|------------------------|------------------------|

|------------------------|------------------------|7/-9--r-----------------|

|------------------------|7-----------5/-7--r-----|------------------------|

|------------------------|------------------------|------------------------|





|------------------------|------------------------|------------------------|

|------------------------|5\-4--r-----------------|------------------------|

|------------4/-5--r-----|------------7-r------7--|------------5/-7--r-----|

|------------------------|-----------------7-r----|0-----------------------|





|------------------------|------------------------|------------------------|

|7/-9-----r--------------|------------------------|5--4--------------------|

|------------------------|----------4-4/-5-r------|------------5h7--4/5--6h|

|------------------------|------------------------|------------------------|





|------------------------|------------------------|------------------------|

|------------------------|7/-9--r-----------------|------------------------|

|7-----------5/-7--r-----|------------------------|------------4/-5--r-----|

|---7-r------------------|------------------------|------------------------|





|------------------------|------------------------|------------------------|

|5\-4-----r--------------|------------------------|7/-9--r-----------------|

|---------------7--------|------------5/-7--r-----|------------------------|

|------------------7-----|0-----0-----------------|------------------------|





|------------------------|------------------------|------------------------|

|------------------------|5\-4--r--------6--9--7--|9-----------------------|

|------------4/-5--r-----|----------5/7-----------|---7--7-r---5/-7--r-----|

|------------------------|------------------------|------------------------|





|------------------------|------------------------|------------------------|

|7/-9--r-----------------|------11\---------------|5\-4---r----------------|

|------------------------|------------4/-5---r----|----------5h7--5--------|

|------------------------|------------------------|------------------7-----|





|------------------------|------------------------|------------------------|

|------------------------|7/-9--r-----------------|7p6-r-------------------|

|------------5/-7---r----|---------------7-r---7--|------------4/-5--r-----|

|0-----------------------|------------------------|------------------------|





|------------------------|------------------------|------------------------|

|5\-4--r-----------------|------------------------|7/-9-r----------------7r|

|----------5-r--9-r--9-7-|------------5/-7--r---7-|--------------------7r--|

|------------------------|0-----------------------|------------------------|



|------------------------|------------------------|------------------------|

|7r----------------------|5\-4-r------------------|------------------------|

|------------4/-5--r---5-|----------5h7--5--------|------------5/-7--r-----|

|------------------------|------------------7--4--|5--5--0-----------------|





|------------------------|------------------------|------------------------|

|7/-9--r-----------------|------------------------|5\-4-r------------------|

|------------------------|------------4/-5-r------|----------5h7--5--------|

|------------------------|------------------------|------------------7--4--|





|------------------------|------------------------|------------------------|

|------------------------|7/-9--r-----------------|------------------------|

|------------5/-7--r---7-|------------------------|------------4/-5-r------|

|5--5--0--0--------------|------------------------|------------------------|





|------------------------|------------------------|------------------------|

|5\-4-r---------7-r------|------------------------|7/-9--r-----------------|

|-----------7-r-------7--|------------5/-7--r---7-|------------------------|

|------------------------|0-----------------------|------------------------|





[to fade]

|------------------------|------------------------|------------------------|

|------------------------|5\-4--r-----------------|------------------------|

|------------4/-5--r-----|----------5h7--5--------|------------------------|

|------------------------|------------------7--5--|0-----------------------|



(PLEASE RATE THIS TAB / LEAVE COMMENT)Added by tabs-database.com and our distinguished partners
Get this song at amazon.com      Ebay     Ringtones Ringtones  


Learn to play: Songwriting, Piano, Harmonica, Guitar
More Led Zeppelin lyrics available at Muzikum

Related Led Zeppelin Tabs

Led Zep I tabs
The Immigrant Song (with Lyrics) tabs
All My Love Bass tabs
Stairway To Heaven (absolutely Correct) tabs
Black Dog Live tabs
Custard Pie tabs
For Your Life tabs
Ozone Baby Bass tabs
Stairway To Heaven 100% Correct tabs
Dancing Days tabs
The Battle Of Evermore tabs
Black Country Woman Intro tabs
Over The Hills & Far Away tabs
Bring It Home tabs
Ten Years Gone tabs
Lets Have A Party tabs
Yallah tabs
Thats The Way tabs
Misty Mountain Hop tabs
The Rover tabs


Guitar Tabs









All tabs are property and copyright of their owners. All tabs provided for educational purposes only. Privacy Policy, DMCA