Led Zeppelin

What Is And Never Should Be Bass Tabs



More from Led Zeppelin

Led Zeppelin Tabs
Led Zeppelin Chords
Led Zeppelin Bass
Led Zeppelin Lyrics




G :-----------------|-----------------------|----------9-----------|
D :------------2--/7|7------7---------------|----9-/11---11--9-----|
A :-----------------|--7-h9---9-7-0---0-4--0|7---------------------|
E :-----------------|-----------------------|----------------------|

G :------------------------|----------9------------|
D :7------7----------------|----9-/11---11\--9-----|
A :--7-h9---9-7-0---0-4-4-4|7----------------------|
E :------------------------|-----------------------|

G :------------------------|----------9------------|
D :7------7----------------|----9-/11---11\--9-----|
A :--7-h9---9-7-0---0-4-5-6|7----------------------|
E :------------------------|-----------------------|

G :--------------------------|-------------------------|
D :7------7------------------|------7-----5-------5----|
A :--7-h9---9-7-0---0-4-3-2-1|0-0-0---0-0---0-0-0-----0|
E :--------------------------|----------------------3--|

G :------------------------|------------------------|
D :4-------4---------------|-----7-----5-------5----|
A :--0-0-0---0-0-7-0-5-4-2-|0--0---0-0---0-0-0---0-0|
E :------------------------|------------------------|

G :-------------------------|------4-----2-------2----|
D :4-------4----------------|-------------------------|
A :--0-0-0---0-0-7-5--3-2-0-|2-2-2---2-2---2-2-2---2-2|
E :-------------------------|-------------------------|

G :1-----1--------------|----------------|-----------------------|
D :------------4-2--1---|----------------|-----------2-----------|
A :--2-2---2-2--------2-|----------------|0-----2-/4-------------|
E :---------------------|2---------------|-------------b3-(4)----|

G :----------------|-----------------|-----------------------|
D :----------------|-----------2---/-|7------7---------------|
A :----------------|-----------------|--7-h9---9-7-0---0-4--0|
E :0---------------|-----------------|-----------------------|

G :----------9-----------|------------------------|----------9------------|
D :----9-/11---11--9-----|7------7----------------|----9-/11---11\--9-----|
A :7---------------------|--7-h9---9-7-0---0-4-4-4|7----------------------|
E :----------------------|------------------------|-----------------------|

G :------------------------|----------9------------|
D :7------7----------------|----9-/11---11\--9-----|
A :--7-h9---9-7-0---0-4-5-6|7----------------------|
E :------------------------|-----------------------|

G :--------------------------|-------------------------|
D :7------7------------------|------7-----5-------5----|
A :--7-h9---9-7-0---0-4-3-2-1|0-0-0---0-0---0-0-0-----0|
E :--------------------------|----------------------3--|

G :------------------------|------------------------|
D :4-------4---------------|-----7-----5-------5----|
A :--0-0-0---0-0-7-0-5-4-2-|0--0---0-0---0-0-0---0-0|
E :------------------------|------------------------|

G :-------------------------|------4-----2-------2----|
D :4-------4----------------|-------------------------|
A :--0-0-0---0-0-7-5--3-2-0-|2-2-2---2-2---2-2-2---2-2|
E :-------------------------|-------------------------|

G :1-----1--------------|-----------------|-------------------------|
D :------------4-2--1---|-----------------|--------------2-4--------|
A :--2-2---2-2--------2-|-----------------|0--------2-h4------------|
E :---------------------|2-------------2/-|------------------b3-(4)-|

G :----------------|-----------------|------------------------|
D :----------------|------------2--/7|7------7----------------|
A :----------------|-----------------|--7-h9---9-7-0---0-4-5-6|
E :0---------------|-----------------|------------------------|

G :--------9-------------|--------------------|
D :--9-/11---11-\9--6-9-6|7--------7----------|
A :7---------------------|----7-/9---9-7-4-5-6|
E :----------------------|--------------------|

G :---------9-11-/12-/13--11-9----|--------------------|
D :---9-/11--------------------11-|7---7-6-------------|
A :/7-----------------------------|---------9-7-------7|
E :-------------------------------|--------------7-/9--|

G :----9-----------------|------------------------|
D :-----------------5-/7-|7------9-/11-9-7--------|
A :(7)------2-4--7-------|-----------------9-7----|
E :-0----/4--------------|---------------------9-7|

G :-------------------------|------------------------|
D :------7-----5-------5----|4-------4---------------|
A :0-0-0---0-0---0-0-0-----0|--0-0-0---0-0-7-0-5-4-2-|
E :----------------------3--|------------------------|

G :------------------------|-------------------------|
D :-----7-----5-------5----|4-------4----------------|
A :0--0---0-0---0-0-0---0-0|--0-0-0---0-0-7-5--3-2-0-|
E :------------------------|-------------------------|

G :------4-----2-------2----|1-----1--------------|-----------------|
D :-------------------------|------------4-2--1---|-----------------|
A :2-2-2---2-2---2-2-2---2-2|--2-2---2-2--------2-|-----------------|
E :-------------------------|---------------------|2-------------2/-|

G :-------------------------|----------------|----------------|
D :--------------2-4--------|----------------|----------------|
A :0--------2-h4------------|----------------|----------------|
E :------------------b3-(4)-|0---------------|----------------|

G :-----------------------|----------9-----------|------------------------|
D :7------7---------------|----9-/11---11--9-----|7------7----------------|
A :--7-h9---9-7-0---0-4--0|7---------------------|--7-h9---9-7-0---0-4-4-4|
E :-----------------------|----------------------|------------------------|

G :----------9------------|------------------------|
D :----9-/11---11\--9-----|7------7----------------|
A :7----------------------|--7-h9---9-7-0---0-4-5-6|
E :-----------------------|------------------------|

G :----------9------------|--------------------------|
D :----9-/11---11\--9-----|7------7------------------|
A :7----------------------|--7-h9---9-7-0---0-4-3-2-1|
E :-----------------------|--------------------------|

G :-------------------------|------------------------|
D :------7-----5-------5----|4-------4---------------|
A :0-0-0---0-0---0-0-0-----0|--0-0-0---0-0-7-0-5-4-2-|
E :----------------------3--|------------------------|

G :------------------------|-------------------------|
D :-----7-----5-------5----|4-------4----------------|
A :0--0---0-0---0-0-0---0-0|--0-0-0---0-0-7-5--3-2-0-|
E :------------------------|-------------------------|

G :------4-----2-------2----|1-----1--------------|----------------|
D :-------------------------|------------4-2--1---|----------------|
A :2-2-2---2-2---2-2-2---2-2|--2-2---2-2--------2-|----------------|
E :-------------------------|---------------------|2---------------|

G :--------------------------|----------------|----------------|
D :------------2-2-/4-b5-(6)-|----------------|----------------|
A :0------2-/4---------------|----------------|----------------|
E :--------------------------|0---------------|----------------|

G :----------------|----------------|-------------------|
D :----------------|----------------|-------------------|
A :----------------|----------------|-------------------|
E :----------------|----------------|------------0-0-0-0|

G :--------------------|-----------------------|--------------------|
D :------6-h7----------|------5-p4-------------|------6-/7--*-------|
A :5-h7----------------|4-h5-------7-----------|5-/7-*-------------4|
E :--------------------|-------------7-0-7-0---|--------------------|

G :------------------------|--------------------|---------------------|
D :------5-\4*-------------|------6-/7--*-------|------5-\4-----------|
A :4-/5-*-----7---5-6-7---*|5-/7-*--------------|4-/5-*-------7-------|
E :-------------7-------7--|--------------------|---------------7-0---|

G :--------------------|------------------------|----------------------|
D :------6-/7--*-------|------5-\4*----9---9----|------6-/7--*-----12\-|
A :5-/7-*--------------|4-/5-*-----7*7---7---7-*|5-/7-*----------------|
E :--------------------|------------------------|----------------------|

G :---------------------|-----------------------|------------------------|
D :------5-\4*----------|-------6-/7--*----7--*-|------5-\4*-------------|
A :4-/5-*-------7-------|5-/7-7--------7*7---7--|4-/5-*-----7---7*7------|
E :---------------7-0---|-----------------------|-------------7-----7-0--|

G :-----------------------|-----------------------------|
D :-------6-/7--*----7-7*-|-------5-4-3-2---------------|
A :5-/7*7----------7------|4-/5-5---------0-2-0---------|
E :-----------------------|---------------------3-/2-0-0|

G :---------------------|--------------------------|--------------------|
D :-------6-/7----------|------5-\4----------------|------6-/7--*-------|
A :5-/7-7---------------|4-/5-------7*6-5-4-3------|5-/7----------------|
E :---------------------|---------------------6-5-3|--------------------|

G :------------------------|---------------------|
D :------5-\4--------------|-------6-/7--*------7|
A :4-/5-*-----7---7*-------|5-/7*7---------------|
E :-------------7---7-0-0--|----*----------------|

G :--------------------------|---------------------|
D :-------5-\4*4-------------|-------6-/7--*-------|
A :4-/5*5--------7-5---7-----|5-/7*7---------------|
E :------------------7---7-0-|---------------------|

G :-------------------------|----------------|
D :------5-\4-3-2*2*--2-----|----------------|
A :4-/5-*-----------2---2---|----------------|
E :-----------------------0-|----------------|



Get this song at amazon.com      Ebay     Ringtones Ringtones  


Learn to play: Songwriting, Piano, Harmonica, Guitar
Also available at Muzikum: Led Zeppelin - What Is And Never Should Be lyrics

Related Led Zeppelin Bass Tabs

Darlene bass
In The Light 4 String bass
Lemon Song bass
Ramble On bass
Thats The Way bass
Bron Y Aur Stomp bass
Ozone Baby bass
Royal Orleans bass
Kashmir (the Right Way!) bass
We're Gonna Groove bass
Since I've Been Loving You bass
For Your Life bass
White Summer/black Mountain Side bass
Candy Store Rock bass
Street corner girl bass
Thank You bass
Dancin Days bass
Dazed And Confused bass
Boogie With Stu bass
Trampled Under Foot bass


Guitar Tabs









All tabs are property and copyright of their owners. All tabs provided for educational purposes only. Privacy Policy, DMCA