Led Zeppelin

Wearing And Tearing Tabs



More from Led Zeppelin

Led Zeppelin Tabs
Led Zeppelin Chords
Led Zeppelin Bass
Led Zeppelin Lyrics



Standard Tuning

E|----------------|----------------|----------------|----------------|
B|----------------|----------------|----------------|----------------|
G|----------------|----------------|----------------|----------------|
D|2---2-2-2---2-2-|2-2-2-2-----2---|----2-2-2---2-2-|2-2-2-2-----2---|
A|0---0-0-0---0-0-|0-0-0-0-----0---|----0-0-0---0-0-|0-0-0-0-----0---|
E|----------------|----------------|----------------|----------------|
| |
E|----------------|----------------|----------------|----------------|
B|----------------|----------------|----------------|----------------|
G|----------------|------2---------|----------------|------2---------|
D|----------------|2-2-2-----------|----------------|2-2-2-----------|
A|0---0-0-4-4-4-4-|------------0---|--0-0-0-4-4-4-4-|------------0---|
E|----------------|----------------|----------------|----------------|

E|----------------|----------------|----------------|----------------|
B|----------------|----------------|----------------|----------------|
G|----------------|----------------|----------------|----------------|
D|----2-2-2---2---|2-2-2-2-----2---|----2-2-2---2-2-|2-2-2-----------|
A|----0-0-0---0---|0-0-0-0-----0---|----0-0-0---0-0-|0-0-0-----------|
E|----------------|----------------|----------------|----------------|
| |
E|----------------|----------------|----------------|----------------|
B|----------------|----------------|----------------|----------------|
G|----------------|------2---------|----------------|------2---------|
D|----------------|2-2-2-----------|----------------|2-2-2-----------|
A|--0-0-0-4-4-4-4-|------------0---|--0-0-0-4-4-4-4-|----------------|
E|----------------|----------------|----------------|------------2---|

E|----------------|----------------|----------------|----------------|
B|----------------|----------------|----------------|----------------|
G|----------------|----------------|----------------|----------------|
D|----------------|----------------|----------------|----------------|
A|----------------|--------------0-|(0)-------------|--3-2-0-2-0-0---|
E|(2)-------------|(2)-------0-2---|----------------|--------------2-|

E|----------------|----------------|----------------|----------------|
B|----------------|----------------|----------------|----------------|
G|----------------|----------------|----------------|----------------|
D|----------------|----------------|----------------|----------------|
A|----------------|--------------0-|(0)-------------|--3-2-0-2-0-0---|
E|(2)-------------|(2)-------0-2---|----------------|--------------2-|

E|----------------|----------------|----------------|----------------|
B|----------------|----------------|----------------|----------------|
G|----------------|----------------|----------------|----------------|
D|----------------|----------------|----------------|----------------|
A|----------------|--------------0-|(0)-------------|--3-2-0-2-0-0---|
E|(2)-------------|(2)-------0-2---|----------------|--------------2-|

E|----------------|----------------|----------------|----------------|
B|----------------|----------------|----------------|----------------|
G|----------------|----------------|----------------|----------------|
D|----------------|----------------|----------------|----------------|
A|----------------|--------------0-|(0)-------------|--3-2-0-2-0-0---|
E|(2)-------------|(2)-------0-2---|----------------|--------------2-|

E|----------------|----------------|----------------|----------------|
B|----------------|----------------|----------------|----------------|
G|----------------|--------------2-|--2-0-1-2-2-----|----0-1-2-2-2---|
D|--4-2-3-4-4---4-|--4-2-3-4-4---4-|------------0-1-|2-2-----------4-|
A|----------------|----------------|----------------|----------------|
E|----------------|----------------|----------------|----------------|

E|----------------|----------------|----------------|----------------|
B|----------------|----------------|----------------|----------------|
G|----------------|--------------2-|--2-0-1-2-2-----|----0-1-2-2-2---|
D|--4-2-3-4-4---4-|--4-2-3-4-4---4-|------------0-1-|2-2-----------4-|
A|----------------|----------------|----------------|----------------|
E|----------------|----------------|----------------|----------------|

E|----------------|----------------|----------------|----------------|
B|----------------|----------------|----------------|----------------|
G|----------------|--------------2-|--2-0-1-2-2-----|----0-1-2-2-2---|
D|--4-2-3-4-4---4-|--4-2-3-4-4---4-|------------0-1-|2-2-----------4-|
A|----------------|----------------|----------------|----------------|
E|----------------|----------------|----------------|----------------|

E|----------------|----------------|----------------|----------------||
B|----------------|----------------|----------------|----------------||
G|----------------|--------------2-|--2-0-1-2-2-----|----0-1-2-2-2---||
D|--4-2-3-4-4---4-|--4-2-3-4-4---4-|------------0-1-|2-2-----------4-||
A|----------------|----------------|----------------|----------------||
E|----------------|----------------|----------------|----------------||

E| ----------------|----------------|----------------|----------------|
B| ----------------|----------------|----------------|----------------|
G|o----------------|----------------|----------------|----------------|
D|o2---2-2-2---2-2-|2-2-2-2-----2---|----2-2-2---2-2-|2-2-2-2-----2---|
A| 0---0-0-0---0-0-|0-0-0-0-----0---|----0-0-0---0-0-|0-0-0-0-----0---|
E| ----------------|----------------|----------------|----------------|
| |
E| ----------------|----------------|----------------|----------------|
B| ----------------|----------------|----------------|----------------|
G|o----------------|------2---------|----------------|------2---------|
D|o----------------|2-2-2-----------|----------------|2-2-2-----------|
A| 0---0-0-4-4-4-4-|------------0---|--0-0-0-4-4-4-4-|------------0---|
E| ----------------|----------------|----------------|----------------|

3/4 time
E|----------------|----------------|----------------|------------|
B|----------------|----------------|----------------|------------|
G|----------------|----------------|----------------|------------|
D|----2-2-2---2-2-|2-2-2-2-----2---|----2-2-2---2-2-|2-2-2-2-----|
A|----0-0-0---0-0-|0-0-0-0-----0---|----0-0-0---0-0-|0-0-0-0-----|
E|----------------|----------------|----------------|------------|
| |
E|----------------|----------------|----------------|------------|
B|----------------|----------------|----------------|------------|
G|----------------|------2---------|--2-2-2-0-0-0-0-|------------|
D|----------------|2-2-2-----------|----------------|4-4-4-2-----|
A|--0-0-0-4-4-4-4-|------------0---|----------------|------------|
E|----------------|----------------|----------------|------------|

4/4 time
E|2---------------|(2)---------2-2-|(2)-------------|(2)-------------|
B|3---------------|(3)---------3-3-|(3)-------------|(3)-------------|
G|2---------------|(2)---------2-2-|(2)-------------|(2)-------------|
D|0---------------|(0)---------0-0-|(0)-------------|(0)-------------|
A|----------------|----------------|----------------|----------------|
E|----------------|----------------|----------------|----------------|
1. It starts out like a murmur...
2. Oh, don't you feel the same way...
3. Well, ya say your body's achin'...
4. Go back to the country...

E|----------------|------------2---|----------------|----------------|
B|2---------------|(2)---------3-2-|(2)-------------|(2)-------------|
G|2---------------|(2)---------2-2-|(2)-------------|(2)-------------|
D|2---------------|(2)---------0-2-|(2)-------------|(2)-------------|
A|0---------------|(0)-----------0-|(0)-------------|(0)-------------|
E|----------------|----------------|----------------|----------------|

E|2---------------|(2)---------2-2-|(2)-------------|(2)-------------|
B|3---------------|(3)---------3-3-|(3)-------------|(3)-------------|
G|2---------------|(2)---------2-2-|(2)-------------|(2)-------------|
D|0---------------|(0)---------0-0-|(0)-------------|(0)-------------|
A|----------------|----------------|----------------|----------------|
E|----------------|----------------|----------------|----------------|

E|----------------|------------2---|----------------|----------------|
B|2---------------|(2)---------3-2-|(2)-------------|(2)-------------|
G|2---------------|(2)---------2-2-|(2)-------------|(2)-------------|
D|2---------------|(2)---------0-2-|(2)-------------|(2)-------------|
A|0---------------|(0)-----------0-|(0)-------------|(0)-------------|
E|----------------|----------------|----------------|----------------|

E|2---------------|(2)---------2-2-|(2)-------------|(2)-------------|
B|3---------------|(3)---------3-3-|(3)-------------|(3)-------------|
G|2---------------|(2)---------2-2-|(2)-------------|(2)-------------|
D|0---------------|(0)---------0-0-|(0)-------------|(0)-------------|
A|----------------|----------------|----------------|----------------|
E|----------------|----------------|----------------|----------------|

E|----------------|------------2---|----------------|----2-----------|
B|2---------------|(2)---------3-2-|(2)-------------|(2)-3-2-----2---|
G|2---------------|(2)---------2-2-|(2)-------------|(2)-2-2-----2---|
D|2---------------|(2)---------0-2-|(2)-------------|(2)-0-2-----2-4-|
A|0---------------|(0)-----------0-|(0)-------------|(0)---0-----0---|
E|----------------|----------------|----------------|----------------|

E|----------------|----------------|----------------|----------------|
B|----------------|----------------|----------------|----------------|
G|----------------|--------------2-|--2-0-1-2-2-----|----0-1-2-2-2---|
D|--4-2-3-4-4---4-|--4-2-3-4-4---4-|------------0-1-|2-2-----------4-|
A|----------------|----------------|----------------|----------------|
E|----------------|----------------|----------------|----------------|

E|----------------|----------------|----------------|----------------|
B|----------------|----------------|----------------|----------------|
G|----------------|--------------2-|--2-0-1-2-2-----|----0-1-2-2-2---|
D|--4-2-3-4-4---4-|--4-2-3-4-4---4-|------------0-1-|2-2-----------4-|
A|----------------|----------------|----------------|----------------|
E|----------------|----------------|----------------|----------------|

E|----------------|----------------|----------------|----------------|
B|----------------|----------------|----------------|----------------|
G|----------------|--------------2-|--2-0-1-2-2-----|----0-1-2-2-2---|
D|--4-2-3-4-4---4-|--4-2-3-4-4---4-|------------0-1-|2-2-------------|
A|----------------|----------------|----------------|--------------0-|
E|----------------|----------------|----------------|----------------|
_________________
|1.2.4. 4th time to CODA
E|----------------|----------------|----------------|---------------- |
B|----------------|----------------|----------------|---------------- |
G|----------------|--------------2-|--2-0-1-2-2-----|----0-1-2-2-2---o|
D|--4-2-3-4-4---4-|--4-2-3-4-4---4-|------------0-1-|2-2-----------4-o|
A|----------------|----------------|----------------|---------------- |
E|----------------|----------------|----------------|---------------- |
_________________
|3.
E|----------------|
B|----------------|
G|----0-1-2-------|
D|2-2-------------|
A|----------0-----|
E|----------------|

E|----------------|----------------|----------------|----------------|
B|----------------|----------------|----------------|----------------|
G|----------------|----------------|----------------|----------------|
D|2---2-2-2---2-2-|2-2-2-2-----2---|----2-2-2---2-2-|2-2-2-2-----2---|
A|0---0-0-0---0-0-|0-0-0-0-----0---|----0-0-0---0-0-|0-0-0-0-----0---|
E|----------------|----------------|----------------|----------------|
| |
E|----------------|----------------|----------------|------2---------|
B|----------------|------2---------|----------------|2-2-2-----------|
G|----------------|2-2-2-----------|--------4-4-4-4-|----------------|
D|0---0-0-4-4-4-4-|------------0---|--0-0-0---------|------------0---|
A|----------------|----------------|----------------|----------------|
E|----------------|----------------|----------------|----------------|

E|----------------|----------------|----------------|----------------|
B|----------------|----------------|----------------|----------------|
G|----------------|----------------|----------------|----------------|
D|----2-2-2---2---|2-2-2-2-----2---|----2-2-2---2-2-|2-2-2-----------|
A|----0-0-0---0---|0-0-0-0-----0---|----0-0-0---0-0-|0-0-0-----------|
E|----------------|----------------|----------------|----------------|
| |
E|----------------|----------------|----------------|----------------|
B|----------------|----------------|----------------|----------------|
G|----------------|------2---------|----------------|------2---------|
D|----------------|2-2-2-----------|----------------|2-2-2-----------|
A|--0-0-0-4-4-4-4-|------------0---|--0-0-0-4-4-4-4-|----------------|
E|----------------|----------------|----------------|------------2---|

E|----------------|----------------|----------------|----------------|
B|----------------|----------------|----------------|----------------|
G|----------------|----------------|----------------|----------------|
D|----------------|----------------|----------------|----------------|
A|----------------|--------------0-|(0)-------------|--3-2-0-2-0-0---|
E|(2)-------------|(2)-------0-2---|----------------|--------------2-|

E|----------------|----------------|----------------|----------------|
B|----------------|----------------|----------------|----------------|
G|----------------|----------------|----------------|----------------|
D|----------------|----------------|----------------|----------------|
A|----------------|--------------0-|(0)-------------|--3-2-0-2-0-0---|
E|(2)-------------|(2)-------0-2---|----------------|--------------2-|

E|----------------|----------------|----------------|----------------|
B|----------------|----------------|----------------|----------------|
G|----------------|----------------|----------------|----------------|
D|----------------|----------------|----------------|----------------|
A|----------------|--------------0-|(0)-------------|--3-2-0-2-0-0---|
E|(2)-------------|(2)-------0-2---|----------------|--------------2-|

E|----------------|----------------|----------------|----------------|
B|----------------|----------------|----------------|----------------|
G|----------------|----------------|----------------|----------------|
D|----------------|----------------|----------------|----------------|
A|----------------|--------------0-|(0)-------------|--3-2-0-2-0-0---|
E|(2)-------------|(2)-------0-2---|----------------|--------------2-|

E|----------------|----------------|----------------|----------------|
B|----------------|----------------|----------------|----------------|
G|----------------|--------------2-|--2-0-1-2-2-----|----0-1-2-2-2---|
D|--4-2-3-4-4---4-|--4-2-3-4-4-----|------------0-1-|2-2-----------4-|
A|----------------|----------------|----------------|----------------|
E|----------------|----------------|----------------|----------------|

E|----------------|----------------|----------------|----------------|
B|----------------|----------------|----------------|----------------|
G|----------------|--------------2-|--2-0-1-2-2-----|----0-1-2-2-2---|
D|--4-2-3-4-4---4-|--4-2-3-4-4-----|------------0-1-|2-2-----------4-|
A|----------------|----------------|----------------|----------------|
E|----------------|----------------|----------------|----------------|

E|----------------|----------------|----------------|----------------|
B|----------------|----------------|----------------|----------------|
G|----------------|--------------2-|--2-0-1-2-2-----|----0-1-2-2-2---|
D|--4-2-3-4-4---4-|--4-2-3-4-4-----|------------0-1-|2-2-----------4-|
A|----------------|----------------|----------------|----------------|
E|----------------|----------------|----------------|----------------|

E|----------------|----------------|----------------|----------------|
B|----------------|----------------|----------------|----------------|
G|----------------|--------------2-|--2-0-1-2-2-----|----0-1-2-2-2---|
D|--4-2-3-4-4---4-|--4-2-3-4-4-----|------------0-1-|2-2-------------|
A|----------------|----------------|----------------|--------------0-|
E|----------------|----------------|----------------|----------------|

D.S. al CODA
E|0---------------|(0)-------------|0---------------|(0)-------------||
B|12----10--------|(10)------------|12----10--------|(10)------------||
G|----------------|----------------|----------------|----------------||
D|----------------|----------------|----------------|----------------||
A|----------------|----------------|----------------|----------------||
E|----------------|----------------|----------------|----------------||
| |
E|----------------|----------------|----------------|----------------||
B|9-----7---------|----------------|----------------|----------------||
G|------------9---|--7-----6-------|----------------|----------------||
D|----------------|------------9---|7-----6-----9---|--7-----6---4---||
A|----------------|----------------|------------11--|--9-----7---5---||
E|----------------|----------------|----------------|----------------||

CODA
E|----------------|----------------|----------------|----------------|
B|----------------|----------------|----------------|----------------|
G|4-4-4-----------|----------------|----------------|----------------|
D|------7-7-7-6-6-|6-4-4-4---------|----------------|----------------|
A|----------------|--------7-7-5-5-|7-7-7-5-5-5-4-4-|4-3-3-3-0-0-----|
E|----------------|----------------|----------------|------------4-4-|
| |
E|10----9-----7---|--5-------------|----------------|----------------|
B|12----11----9---|--7-----9---7---|9-----7---------|----------------|
G|----------------|--------9---7---|9-----7-----9---|--7-----6---4---|
D|----------------|----------------|------------11--|--9-----7---6---|
A|----------------|----------------|----------------|----------------|
E|----------------|----------------|----------------|----------------|

E|----------------|----------------|----------------|----------------|
B|----------------|----------------|----------------|----------------|
G|----------------|----------------|----------------|----------------|
D|----------------|----------------|----------------|----------------|
A|----------------|----------------|----------------|----------------|
E|2---------------|(2)-------------|0---------------|(0)-------------|
| |
E|----------------|----------------|----------------|----------------|
B|----------------|----------------|----------------|----------------|
G|6---6-----------|(6)-------------|----------------|----------------|
D|4---4-----------|(4)-------------|----------------|----------------|
A|----------------|----------------|----------------|----------------|
E|----------------|----------------|4---------------|(4)-------------|

E|----------------|----------------|----------------|----------------|
B|----------------|----------------|----------------|----------------|
G|----------------|----------------|----------------|----------------|
D|----------------|----------------|----------------|----------------|
A|4---4-5-----2---|4---4-5-----2---|4---4-5-----2---|4---4-5-----2---|
E|2---2-3-----0---|2---2-3-----0---|2---2-3-----0---|2---2-3-----0---|

E|----------------|----------------|----------------|----------------|
B|----------------|----------------|----------------|----------------|
G|----------------|----------------|----------------|----------------|
D|----------------|----------------|----------------|----------------|
A|4---4-5-----2---|4---4-5-----2---|4---4-5-----2---|4---4-5-----2---|
E|2---2-3-----0---|2---2-3-----0---|2---2-3-----0---|2---2-3-----0---|

E|----------------|----------------|----------------|----------------|
B|----------------|----------------|----------------|----------------|
G|----------------|----------------|----------------|----------------|
D|----------------|----------------|----------------|----------------|
A|4---4-5-----2---|4---4-5-----2---|4---4-5-----2---|4---4-5-----2---|
E|2---2-3-----0---|2---2-3-----0---|2---2-3-----0---|2---2-3-----0---|

E|----------------|----------------|----------------|----------------|
B|----------------|----------------|----------------|----------------|
G|----------------|----------------|----------------|----------------|
D|----------------|----------------|----------------|----------------|
A|4---4-5-----2---|4---4-5-----2---|4---4-5-----2---|4---4-5-----2---|
E|2---2-3-----0---|2---2-3-----0---|2---2-3-----0---|2---2-3-----0---|

E|----------------|----------------|----------------|----------------|
B|----------------|----------------|----------------|----------------|
G|----------------|----------------|----------------|----------------|
D|2---2-2-2---2-2-|2-2-2-2-----2---|----2-2-2---2-2-|2-2-2-2-----2---|
A|0---0-0-0---0-0-|0-0-0-0-----0---|----0-0-0---0-0-|0-0-0-0-----0---|
E|----------------|----------------|----------------|----------------|
| |
E|----------------|----------------|----------------|------2---------|
B|----------------|------2---------|----------------|2-2-2-----------|
G|----------------|2-2-2-----------|--------4-4-4-4-|----------------|
D|0---0-0-4-4-4-4-|------------0---|--0-0-0---------|------------0---|
A|----------------|----------------|----------------|----------------|
E|----------------|----------------|----------------|----------------|

E|----------------|----------------|----------------|----------------|
B|----------------|----------------|----------------|----------------|
G|----------------|----------------|----------------|----------------|
D|----2-2-2---2---|2-2-2-2-----2---|----2-2-2---2-2-|2-2-2-2---------|
A|----0-0-0---0---|0-0-0-0-----0---|----0-0-0---0-0-|0-0-0-0---------|
E|----------------|----------------|----------------|----------------|
| |
E|----------------|----------------|----------------|----------------|
B|----------------|----------------|----------------|----------------|
G|----------------|------2---------|----------------|------2---------|
D|----------------|2-2-2-----------|----------------|2-2-2-----------|
A|--0-0-0-4-4-4-4-|------------0---|--0-0-0-4-4-4-4-|----------------|
E|----------------|----------------|----------------|----------------|



Get this song at amazon.com      Ebay     Ringtones Ringtones  


Learn to play: Songwriting, Piano, Harmonica, Guitar
Also available at Muzikum: Led Zeppelin - Wearing And Tearing lyrics

Related Led Zeppelin Tabs

Stairway To Heaven (complete) tabs
The Girl I Love tabs
Livin' Lovin' Maid tabs
The Crunge tabs
The Wanton Song tabs
Im Gonna Crawl tabs
Poor Tom Bass tabs
Candy Store Rock tabs
Achilles Last Stand tabs
Ten Years Gone tabs
South Bound Saurez tabs
Black Dog4 tabs
Hats Off To Roy Harper tabs
The Rover (2) tabs
Wanton Song tabs
Thats The Way tabs
Battle Of Evermore tabs
American Woman tabs
Bron Yr Aur (Version 2) tabs
Lz Time Of Dying tabs


Guitar Tabs









All tabs are property and copyright of their owners. All tabs provided for educational purposes only. Privacy Policy, DMCA