Led Zeppelin

Trampled Under Foot Bass Tabs



More from Led Zeppelin

Led Zeppelin Tabs
Led Zeppelin Chords
Led Zeppelin Bass
Led Zeppelin Lyrics




Led Zeppelin: Trampled Under Foot


Intro
G------------------
D---5---5---5---5-- X2
A------------------
E-3---3---3---3----

1st and 2nd Verses (0:04, 0:24)
G------------------
D---5---5---5---5-- X6
A------------------
E-3---3---3---3----

G-------------
D-------------
A-1----1-3~---
E-------------

G------------------
D---5---5---5---5-- X2
A------------------
E-3---3---3---3----

3rd Verse (0:43)
G------------------
D---5---5---5---5-- X6
A------------------
E-3---3---3---3----

G-------------------------------
D--------------------3--3~-x----
A-1----1-3~----6~---------------
E----------------------------1--

G------------------
D---5---5---5---5-- X2
A------------------
E-3---3---3---3----

4th, 5th and 6th Verses (1:05, 1:25, 1:44)
G------------------
D---5---5---5---5-- X6
A------------------
E-3---3---3---3----

G-------------
D-------------
A-1----1-3~---
E-------------

G------------------
D---5---5---5---5-- X2
A------------------
E-3---3---3---3----

G------------------
D---5---5---5---5-- X6
A------------------
E-3---3---3---3----

G-------------------------------
D--------------------3--3~-x----
A-1----1-3~----6~---------------
E----------------------------1--

G------------------
D---5---5---5---5-- X2
A------------------
E-3---3---3---3----

(2:06)
G----------------------
D--------3-4-5~~--3-5--
A------5---------------
E-3~~------------------

Keyboard Solo (2:14)
G------------------
D---5---5---5---5-- X22
A------------------
E-3---3---3---3----

(3:01)
G-----------------
D------0--3--5~~--
A-----------------
E-3~~-------------

G------------------
D---5---5---5---5-- X2
A------------------
E-3---3---3---3----

7th, 8th and 9th Verses (3:14, 3:33, 3:52)
G------------------
D---5---5---5---5-- X6
A------------------
E-3---3---3---3----

G-------------
D-------------
A-1----1-3~---
E-------------

G------------------
D---5---5---5---5-- X2
A------------------
E-3---3---3---3----

G------------------
D---5---5---5---5-- X6
A------------------
E-3---3---3---3----

G-------------------------------
D--------------------3--3~-x----
A-1----1-3~----6~---------------
E----------------------------1--

G------------------
D---5---5---5---5-- X2
A------------------
E-3---3---3---3----

Outro (4:14)
G------------------
D---5---5---5---5-- X25
A------------------
E-3---3---3---3----

G-------------------------------
D-----5------5-------5-------5-- X10
A-------------------------------
E-3------3-------3-------3------

G-----
D-----
A-----
E-3~--

ELMO



Get this song at amazon.com      Ebay     Ringtones Ringtones  


Learn to play: Songwriting, Piano, Harmonica, Guitar
Also available at Muzikum: Led Zeppelin - Trampled Under Foot lyrics

Related Led Zeppelin Bass Tabs

Immigrant Song bass
No Quater bass
Ramble On bass
The Lemon Song bass
Hots On For Nowhere bass
Walters Walk bass
The Rain Song bass
Black Dog bass
The Ocean (complete) bass
I Can't Quit You Baby bass
Houses Of The Holy bass
Bring It On Home Alternate Version bass
Out On The Tiles (complete) bass
Stairway To Heaven bass
Dyer Maker bass
Communitcation Breakdown bass
Baby Come On Home bass
Nobodys Fault But Mine bass
Achillies Last Stand bass
In The Evening bass


Guitar Tabs









All tabs are property and copyright of their owners. All tabs provided for educational purposes only. Privacy Policy, DMCA