Led Zeppelin

The Wanton Song (complete) Bass Tabs



More from Led Zeppelin

Led Zeppelin Tabs
Led Zeppelin Chords
Led Zeppelin Bass
Led Zeppelin Lyrics




JPJ!

G :-----------------------|-----------------------|-----------------------|
D :----5-5-----5-5--*-----|----5-5-----5-5--*-----|----5-5-----5-5--*-----|
A :-----------------------|-----------------------|-----------------------|
E :3-3-----3-3---*--------|3-3-----3-3---*--------|3-3-----3-3------------|


G :-----------------------|-----------------------|-----------------------|
D :----5-5-----5-5--*-----|----5-5-*-*-5-5--*-----|*---5-5-*-*-5-5--*-----|
A :-----------------3--4--|-----------------------|-----------------------|
E :3-3-----3-3---*--------|3-3-----3-3---*--------|3-3-----3-3---*--------|


G :-----------------------|-------------------------|7-7-6--5-5-*3-----|
D :*---5-5-*-*-5-5--*-----|*---5-5-*-*-5-5-*-----3-*|------------------|
A :-----------------------|----------------3-4-5-*-3|*-----------------|
E :3-3-----3-3---*--------|3-3-*---3-3---*----------|------------------|


G :*----------------------|-----------------------|-----------------------|
D :----5-5-*-*-5-5--*-----|*---5-5-*-*-5-5--*-----|*---5-5-*-*-5-5--*-----|
A :-----------------------|-----------------------|-----------------------|
E :3-3-----3-3---*--------|3-3-*---3-3---*--------|3-3-----3-3---*--------|


G :-----------------------|-----------------------|-----------------------|
D :----5-5-*-*-5-5--3--4--|----5-5-----5-5--*-----|----5-5-*-*-5-5--*-----|
A :-----------------------|-----------------------|-----------------------|
E :3-3-*-*-3-3---*--------|3-3-*-*-3-3---*--------|3-3-*-*-3-3---*--------|


G :-----------------------|-------------------------|7-7-6--5-5-*3-----|
D :----5-5-*-*-5-5--*-----|----5-5-*-*-5-5-*-----3-*|------------------|
A :-----------------------|----------------3-4-5-*-3|*-----------------|
E :3-3-*-*-3-3---*--------|3-3-*-*-3-3---*----------|------------------|


G :*---------------|------------------|----------------|------0--3--6-*-|
D :----------------|------------------|----------------|---2--*-------0-|
A :----------1---2-|----2-2-2-2-2-3---|--------3-----4-|---*------------|
E :1-1-1-4---*-----|------------------|----------------|----------------|


G :----------------|--------------------|----------------|----------------|
D :0-----*---------|--------------------|0-----*---------|----------------|
A :*-----0------*--|*-------------1-1-1-|*-----0------*--|----------------|
E :-------------3--|3--3-3-3-3-3-*------|-------------3--|----------------|


G :----------------|--------------------|----------------|
D :0-----*---------|--------------------|0-----*---------|
A :*-----0------0--|--------------1-1-1-|*-----0-----*---|
E :----------------|---3-3-3-3-3-*------|------------3---|


G :------------------|*----------------------|-----------------------|
D :--5-3-------------|----5-5-*-*-5-5--*-----|*---5-5-*-*-5-5--*-----|
A :------5---1-------|-----------------------|-----------------------|
E :------------------|3-3-*-*-3-3---*--------|3-3-*-*-3-3---*--------|


G :-----------------------|-----------------------|-----------------------|
D :*---5-5-*-*-5-5--*-----|----5-5-*-*-5-5--3--4--|----5-5-----5-5--*-----|
A :-----------------------|-----------------------|-----------------------|
E :3-3-*-*-3-3---*--------|3-3-*-*-3-3---*--------|3-3-*-*-3-3---*--------|


G :-----------------------|-----------------------|
D :----5-5-*-*-5-5--*-----|----5-5-*-*-5-5--*-----|
A :-----------------------|-----------------------|
E :3-3-*-*-3-3---*--------|3-3-*-*-3-3---*--------|


G :-------------------------|7-7-6--5-5*3------|*---------------|
D :----5-5-*-*-5-5-*-----3-*|------------------|----------------|
A :----------------3-4-5-*-3|*-----------------|----------1---2-|
E :3-3-*-*-3-3---*----------|------------------|1-1-1-4---*-----|


G :------------------|----------------|------0--3--6-*-|----------------|
D :------------------|----------------|---2--*-------0-|0-----*---------|
A :----2-2-2-2-2-3---|--------3-----4-|---*------------|*-----0------*--|
E :------------------|----------------|----------------|-------------3--|


G :--------------------|----------------|----------------|----------------|
D :--------------------|0-----*---------|----------------|0-----*---------|
A :*-------------1-1-1-|*-----0------*--|----------------|*-----0------*--|
E :3--3-3-3-3-3-*------|-------------3--|----------------|-------------3--|


G :--------------------|----------------|----------------|----------------|
D :--------------------|0-----*---------|----------------|----------------|
A :--------------1-1-1-|*-----0------*--|----------------|----------------|
E :---3-3-3-3-3-*------|-------------3--|----------------|----------------|


G :----------------|----------------|----------------|----------------|
D :----------------|----------------|--------3-----5-|----------------|
A :1-------1-0-1-3-|--3---3---5-3---|------------0---|--------------0-|
E :----------------|----------------|1---1-----------|----------------|


G :----------------|----------------|----------------|----------------|
D :----------------|----------------|----------------|----------------|
A :1-----1---1---3-|----------5-3-0-|----------------|----------------|
E :----------------|----------------|1---1--0--1---1-|3---------------|


G :----------------|----------------|----------------|----------------|
D :----------------|----------------|----------------|----------------|
A :1---1-----0-1-3-|------3-3-5-3-0-|----------------|--------------0-|
E :----------------|----------------|1---1---1-0-1-2-|3-----------3---|


G :----------------|----------------|----------------|----------------|
D :----------------|----------------|----------------|----------------|
A :1-------1-0-1-3-|--3-3-3-3-5-3-0-|----------------|--------1-------|
E :----------------|----------------|1-------1-2-2-3-|--------*-------|


G :*----------------------|-----------------------|*----------------------|
D :----5-5-*-*-5-5--*-----|*---5-5-*-*-5-5--*-----|----5-5-*-*-5-5--*-----|
A :-----------------------|-----------------------|-----------------------|
E :3-3-*-*-3-3---*--------|3-3-*-*-3-3---*--------|3-3-*-*-3-3---*--------|


G :-----------------------|-----------------------|-----------------------|
D :*---5-5-*-*-5-5--*-----|*---5-5-*-*-5-5--*-----|----5-5-*-*-5-5--3--4--|
A :-----------------------|-----------------------|-----------------------|
E :3-3-*-*-3-3---*--------|3-3-*-*-3-3---*--------|3-3-*-*-3-3---*--------|


G :-----------------------|*----------------------|-----------------------|
D :*---5-5-*-*-5-5--*-----|----5-5-*-*-5-5--*-----|*---5-5-*-*-5-5--*-----|
A :-----------------------|-----------------------|-----------------------|
E :3-3-*-*-3-3---*--------|3-3-*-*-3-3---*--------|3-3-*-*-3-3---*--------|


G :-----------------------|-------------------------|7-7-6--5-5*3------|
D :*---5-5-*-*-5-5--*-----|----5-5-*-*-5-5-*-----3-*|------------------|
A :-----------------------|----------------3-4-5-*-3|*-----------------|
E :3-3-*-*-3-3---*--------|3-3-*-*-3-3---*----------|------------------|


G :7-7-6--5-5*3------|7-7-6--5-5-*3-----|---------------*|
D :------------------|------------------|---------------*|
A :------------------|------------------|---------------*|
E :------------------|------------------|---------------*|



Get this song at amazon.com      Ebay     Ringtones Ringtones  


Learn to play: Songwriting, Piano, Harmonica, Guitar
More Led Zeppelin lyrics available at Muzikum

Related Led Zeppelin Bass Tabs

Night Flight bass
Dancin Days bass
No Quarter bass
Dazed And Confused (correct) bass
Dyer Maker bass
Kashmir bass
In The Evening bass
Black Country Woman bass
In The Light 4 String bass
Kashmir (the Right Way!) bass
Black Dog(100% Correct) bass
Kashmir (correct) bass
Thats The Way bass
Most High bass
Kashmir Intro bass
No Quater bass
Misty Moutain Hop bass
Babe Im Gonna Leave You bass
Heartbreaker Complete bass
Dancing Days bass


Guitar Tabs









All tabs are property and copyright of their owners. All tabs provided for educational purposes only. Privacy Policy, DMCA