Led Zeppelin

The Wanton Song Bass Tabs



More from Led Zeppelin

Led Zeppelin Tabs
Led Zeppelin Chords
Led Zeppelin Bass
Led Zeppelin Lyrics



Standard Tuning

G|----------------|----------------|----------------|----------------|
D|----------------|----------------|----------------|----------------|
A|----------------|----------------|----------------|----------------|
E|3-333--33-------|3-333--33-------|3-333--33-------|3-333-33----1-2-|

G|----------------|----------------|----------------|----------------|
D|----------------|----------------|----------------|----------------|
A|----------------|----------------|----------------|-------3---45--7|
E|3-333--33-------|3-333--33-------|3-333--33-------|3-333-----------|

G|7---6---5---3---|
D|----------------|
A|-5---4---3---1--|
E|----------------|

G|----------------|----------------|----------------|----------------|
D|----------------|----------------|----------------|----------------|
A|----------------|----------------|----------------|----------------|
E|3-333--33-------|3-333--33-------|3-333--33-------|3-333-33----1-2-|

G|----------------|----------------|----------------|----------------|
D|----------------|----------------|----------------|----------------|
A|----------------|----------------|----------------|----------------|
E|3-333--33-------|3-333--33-------|3-333--33-------|3-333-33----1-2-|

G|----------------|----------------|----------------|----------------|
D|----------------|----------------|----------------|----------------|
A|----------------|----------------|----------------|-------3---45--7|
E|3-333--33-------|3-333--33-------|3-333--33-------|3-333-----------|

G|7---6---5---3---|
D|----------------|
A|-5---4---3---1--|
E|----------------|

G|----------------|----------------|----------------|----------------|
D|----------------|----------------|----------------|----------------|
A|----------------|1---------1-1-2-|3---------1-2-3-|4---------------|
E|1---------3-4-5-|----------------|----------------|----------------|

G|----------------|----------------|----------------|----------------|
D|----------------|----------------|----------------|----------------|
A|5---------------|----------------|5---------------|----------------|
E|--------5-------|3---------------|--------5-------|3---------------|

G|----------------|----------------|----------------|----------------|
D|----------------|----------------|----------------|----------------|
A|5---------------|----------------|5---------------|----------------|
E|--------5-------|3---------------|--------5-------|3---------------|

G|----------------|----------------|----------------|----------------|
D|----------------|----------------|----------------|----------------|
A|----------------|----------------|----------------|----------------|
E|3-333--33-------|3-333--33-------|3-333--33-------|3-333-33----1-2-|

G|----------------|----------------|----------------|----------------|
D|----------------|----------------|----------------|----------------|
A|----------------|----------------|----------------|-------3---45--7|
E|3-333--33-------|3-333--33-------|3-333--33-------|3-333-----------|

G|7---6---5---3---|
D|----------------|
A|-5---4---3---1--|
E|----------------|

G|----------------|----------------|----------------|----------------|
D|----------------|----------------|----------------|----------------|
A|----------------|----------------|----------------|----------------|
E|3-333--33-------|3-333--33-------|3-333--33-------|3-333-33----1-2-|

G|----------------|----------------|----------------|----------------|
D|----------------|----------------|----------------|----------------|
A|----------------|----------------|----------------|-------3---45--7|
E|3-333--33-------|3-333--33-------|3-333--33-------|3-333-----------|

G|7---6---5---3---|
D|----------------|
A|-5---4---3---1--|
E|----------------|

G|----------------|----------------|----------------|----------------|
D|----------------|----------------|----------------|----------------|
A|----------------|1---------1-1-2-|3---------1-2-3-|4---------------|
E|1---------3-4-5-|----------------|----------------|----------------|

G|----------------|----------------|----------------|----------------|
D|----------------|----------------|----------------|----------------|
A|5---------------|----------------|5---------------|----------------|
E|--------5-------|3---------------|--------5-------|3---------------|

G|----------------|----------------|----------------|----------------|
D|----------------|----------------|----------------|----------------|
A|5---------------|----------------|5---------------|----------------|
E|--------5-------|3---------------|--------5-------|3---------------|

Guitar Solo
G|----------------|----------------|----------------|----------------|
D|----------------|----------------|----------------|----------------|
A|1-----------2---|3---------------|----------------|----------------|
E|----------------|----------------|1---------------|3---------------|

G|----------------|----------------|----------------|----------------|
D|----------------|----------------|----------------|----------2-4-5-|
A|1-----------2---|3---------------|----------------|----2-3-5-------|
E|----------------|----------------|1---------------|3-5-------------|

G|----------------|----------------|----------------|----------------|
D|----------------|----------------|----------------|----------------|
A|1-----------2---|3---------------|----------------|----------------|
E|----------------|----------------|1---------------|3-3-3-3-3-3-3-3-|

G|----------------|----------------|----------------|----------------|
D|----------------|----------------|----------------|----------------|
A|1-----------2---|3---------------|----------------|----------------|
E|----------------|----------------|1---------------|3---------------|

G|----------------|----------------|----------------|----------------|
D|----------------|----------------|----------------|----------------|
A|----------------|----------------|----------------|----------------|
E|3-333--33-------|3-333--33-------|3-333--33-------|3-333-33----1-2-|

G|----------------|----------------|----------------|----------------|
D|----------------|----------------|----------------|----------------|
A|----------------|----------------|----------------|-------3---45--7|
E|3-333--33-------|3-333--33-------|3-333--33-------|3-333-----------|

G|7---6---5---3---|
D|----------------|
A|-5---4---3---1--|
E|----------------|

G|----------------|----------------|----------------|----------------|
D|----------------|----------------|----------------|----------------|
A|----------------|----------------|----------------|----------------|
E|3-333--33-------|3-333--33-------|3-333--33-------|3-333-33----1-2-|

G|----------------|----------------|----------------|----------------|
D|----------------|----------------|----------------|----------------|
A|----------------|----------------|----------------|-------3---45--7|
E|3-333--33-------|3-333--33-------|3-333--33-------|3-333-----------|

G|7---6---5---3---|
D|----------------|
A|-5---4---3---1--|
E|----------------|

G|7---6---5---3---|
D|----------------|
A|-5---4---3---1--|
E|----------------| 6X



Get this song at amazon.com      Ebay     Ringtones Ringtones  


Learn to play: Songwriting, Piano, Harmonica, Guitar
Also available at Muzikum: Led Zeppelin - The Wanton Song lyrics

Related Led Zeppelin Bass Tabs

The Lemon Song bass
Darlene bass
Hart Breaker bass
Crunge bass
Ocean (perfect Riff) bass
Rock & Roll bass
Kashmir (live) bass
The Girl I Love She Got Long Black Wavu Hair bass
Immigration Song bass
Poor Tom bass
Black Dog(100% Correct) bass
Street corner girl bass
Most High bass
Out On The Tiles (complete) bass
Stair Way To Heaven (correct) bass
The Ocean bass
Moby Dick (live) bass
Candy Store Rock bass
Out On The Tiles bass
Moby Dick - 110% Correct Without A Doubt bass


Guitar Tabs









All tabs are property and copyright of their owners. All tabs provided for educational purposes only. Privacy Policy, DMCA