Led Zeppelin

The Song Remains The Same Bass Tabs



More from Led Zeppelin

Led Zeppelin Tabs
Led Zeppelin Chords
Led Zeppelin Bass
Led Zeppelin Lyrics

-------------------------------------------------------------------------------

LED ZEPPELIN - The Song Remains The Same

-------------------------------------------------------------------------------

Tabbed By: m@xprod'

email: webmaster at tabs-database.com.com





G||----------------7-----|----------------7-----|----------------7-----|

D||----------------------|----------------------|----------------------|

A||----------------------|----------------------|----------------------|

E||----------------------|----------------------|----------------------|



----------------7-----|---------------------7----|--------------------7----|

----------------------|--0---0-0---0---0-0-------|--0----0---0---0-0-------|

----------------------|--------------------------|-------------------------|

----------------------|--------------------------|-------------------------|



------------------------|------------------------|-------------------------|

------------------------|------------------------|-------------------7-----|

--0----0-------0--0-0---|--0------------0--0-0---|--0---0-0-------0------7-|

------------------------|------------------------|-------------------------|



------------------------|-------------------------|-------------------------|

-------------------7----|--------7----------7-----|-------------------------|

--0---0-0-------0-------|--0---0---------0----0---|--0---0-0-------0--0-0---|

------------------------|-------------------------|-------------------------|



|------------------------------|-------------------------------|

|*-----------------------------|--5g7---7-7--------5g5--7-7----|

|*--5---5-5--x-x-x-x-5----5----|-----------------------------5-|

|------------------------------|-------------------------------|



----------------------7---|--7---7-7------------------||

--------------------7-----|-----------------5----7---*||

--5---5-5--------5--------|--------------------------*||

--------------------------|---------------------------||



----------------------------|-----12-----14------------12--|

----------------12--14--15--|-------------------15---------|

--5-------0--0--------------|------------------------------|

----------------------------|------------------------------|



-------------------------------|--------------------------------|

-----12--14--------------------|--------------------------------|

-------------15-----14-----12--|-----14-------------------------|

-------------------------------|---------15h----15--13--12--10--|



-------------------------|-------------------------|--------------------------|

-------------------7-----|-------------------7-----|--------------------7-----|

--0---0-0-------0----0---|--0---0-0-------0----0---|--0---0-0--------0----0---|

-------------------------|-------------------------|--------------------------|



--------------------------|--------------------------|

--------------------------|--------------------------|

--0---0-0----0------------|--------------------------|

----------------3----3-3--|--5---5-5-----5--3----3---|



----------------------------|----------------------------|

----------------------------|----------------------------|

----------------------------|----------------------------|

--5---5-5----x-x---3----3---|--5---5-5----x-x---3----3---|



--------------------------|---------------------------|

--------------------------|---------------------------|

--------------------------|--5---5-5--------5----5----|

--5---5-5--------5----5---|---------------------------|



----------------------------|--------7-----------7------|

--5g7---7-7-------5---7-----|-----------------7----7----|

--------------------------5-|--5---5-----------------5--|

----------------------------|---------------------------|



--------------------------|--7-----------------7-----|

----------------5---7-7---|------7-------------------|

--5---5-5-----------------|--------5--------5------5-|

--------------------------|--------------------------|



--------------------------|--------------------7-7---|

--------7-------5---7-7---|-----------------7--------|

--5---5-------------------|--5---5-5-----------------|

--------------------------|--------------------------|



--7-----------------7-----|--------------------------|

------7-------------------|-----------------5--7-7---|

--------5--------5-----5--|--5---5-5-----------------|

--------------------------|--------------------------|



--10-----------------------|--10------------------------|

-------7-------------------|-------7---------------7----|

---------5--------5--5-5---|---------5--------5---------|

---------------------------|----------------------------|



--10------------------------|--10------------------------|

------7----------------7----|-------7---------------7----|

---------5--------5---------|---------5--------5---------|

----------------------------|----------------------------|



--10-------------------------|--10------------------------|

------7-7---------------7----|-----------------------7----|

----------5--------5---------|------5--5--------5---------|

-----------------------------|----------------------------|



--10---------------------|--------------------------|-------------------|

------7------------------|--------------------------|-------------------|

---------5---------5--5--|--5--5-----5--5--5-----5--|--5----------------|

-------------------------|--------------------------|-------------------|



--------------------|------------------------|------------------0--0--0--|

--------------------|------------------------|---------0--2--------------|

--3--------3--------|--------------------0h--|--1h--2--------------------|

--------------------|--3---------------------|---------------------------|



--0--------------------|--------------------|------------------------|

-----------------------|--------------------|------------------------|

-----------------------|--3--------3--------|--------------------0h--|

-----------------------|--------------------|--3---------------------|



----------------0-----0--|--0-----------------|--------------------------|

-----0-------2-----------|--------------------|--------------------------|

--2----------------------|--------------------|--2g3---------3-----------|

-------------------------|--------------------|----------------------1h--|



----------------------|----------------------|-------------------------|

----------------------|------------1----2----|--3---------3p--2--------|

------------1----2----|--3----4--------------|-------------------3-----|

--2----3--------------|----------------------|----------------------1--|



-----------------------|-------------------|-------------------|

-----------------------|-------------------|-------------------|

-----------3-----------|-------------------|-------------------|

-----------------1-----|--3----------------|-------------------|



-------------------|---------------------------|-----------------------|

-------------------|---------------------------|-----------------------|

-------------------|--2h--3-------2h--3--------|---------------0--2----|

-------------------|---------------------------|--3--------------------|



-----------0--------------|--------------------|--------------------|

-----0--2--------2--0-----|--------------------|--------------------|

-----------------------2--|--------------------|--3--------3--------|

--------------------------|--3-----------------|--------------------|



-----------------------|-------------------0----|--0--------0----0----|

-----------------------|--------0-------4-------|---------------------|

---------------0--2----|-----4------------------|---------------------|

--3--------------------|------------------------|---------------------|



-----------------------|----------------------|----------------------|

--------------------3--|--4----2----1---------|----------------------|

--3---------3----------|-----------------4----|--2----1--------------|

-----------------------|----------------------|------------4----2----|



------------------------|-----------------------|------------------------|

---------------------3--|-----------------------|------------------------|

---------------0--3-----|-----3--0--------------|------------------------|

--1---------------------|-----------1-----------|--3------------3----3---|



--------------------------|--------------------------|

--------------------------|--------------------------|

--------------------------|--0---0-0--------0----0---|

--3---3-3--------3----3---|--------------------------|



--------------------------|---------------------------|

--------------------------|----------------7---7---7--|

--0---0-0--------0----0---|--0---0-0-------------7----|

--------------------------|---------------------------|



----------------------------|--------------------------|

------------------7----7----|--------------------------|

--0---0-0----0-0-----7---0--|--0---0-0-----------------|

----------------------------|-----------------3----3---|



-------------9-9-------------|--------------9-----------|

-----------------------------|--------------------------|

--0---0-0--------------------|--0---0-0-----------------|

-------------------3----0-3--|-----------------3----3---|



---------------------------|-----------------------------|

-------------------------0-|-----------------------------|

--0---0-0-----0--2----3----|--5---5-5----x-x---5----5----|

---------------------------|-----------------------------|



---------------------------7-|--7------------------------|

--5g7---7-7-------5---7-7----|------7---------5-----7----|

-----------------------------|--------5------------------|

-----------------------------|---------------------------|



--------------------------|--------------------7------|

--7---7-7-------5---7-7---|-----------------7---------|

--------------------------|--5---5-5-------------5--5-|

--------------------------|---------------------------|



----------------------------|--------------------7-7---|

----------------7-7--5-5----|-----------------7--------|

--5---5-5-----------------5-|--5---5-5-----------------|

----------------------------|--------------------------|



--7---7-7--------7---------|----------------------12----|

----------------------7----|----------12--14--15--------|

---------------------------|--5-------------------------|

---------------------------|----------------------------|



--------------------14---------|-----16-----14---------16-17---|

-----15--14--12------------17--|-------------------17----------|

-------------------------------|-------------------------------|

-------------------------------|-------------------------------|



-----17--16----14--14--12----|---------------------------|

-----------------------------|--14-----14----------------|

-----------------------------|---0-0------------0--0-0---|

-----------------------------|---------------------------|



-----------------------------|-----------------------------|

--14---14-14-----------------|--14---14-14------------14---|

---0----0--0-------12-----0--|---0----0--0-------0--0--0---|

-----------------------------|-----------------------------|



----------------------------|--------------------------|

--14---14-14----------------|--------------------------|

---0----0--0-------0--------|--0---0-0-----------------|

------------------------3---|-----------------3----3---|



--------------------------|--------------------------|-----------------------|

--------------------------|--------------------------|----------7------------|

--0---0-0-----------------|--0---0-0-----------------|--0----0-----0----2----|

-----------------3----3---|-----------------3----3---|-----------------------|



---------------------------|----------------------------|

---------------------------|--5g7---7-7-------5---7-----|

--5---5-5--------5----5----|--------------------------5-|

---------------------------|----------------------------|



--------7-----------7------|--7---7-7------------------|

------7----------7----7----|--------------7-7---5-5----|

--5---------------------5--|-------------------------5-|

---------------------------|---------------------------|



--------------------------|--7-------------------------|

----------------------7---|------7---------5-5----7-7--|

--5---5-5--------5--5-----|--------5-------------------|

--------------------------|----------------------------|



--------------------------|--------------------------|

--------------------5-7---|--------------------7-7---|

--5---5-5--------5--------|--5---5-5--------5--------|

--------------------------|--------------------------|



--10------------------------|--10------------------------|

-------7---------------7----|-------7---------------7----|

---------5--------5---------|---------5--------5---------|

----------------------------|----------------------------|



--10------------------------|--10------------------------|

-------7---------------7----|-------7---------------7----|

---------5--------5---------|---------5--------5---------|

----------------------------|----------------------------|



--10------------------------|--10------------------------|

-------7---------------7----|-----------------------7----|

---------5--------5---------|------4--5--------5---------|

----------------------------|----------------------------|



--10------------------------|--10--(4)--------------10-----|

-----------------------7----|---------------------------7--|

------4--5--------5---------|-------4---5--------5---------|

----------------------------|------------------------------|



--------9-----------7-----|--------------------------|

-----------------7-----7--|--------------------------|

-----5-----5--5-----------|--5--5--5--5--5--5--5--5--|

--------------------------|--------------------------|



--------------------------|----------------------------|

--7--7--7--7--7--7--7--7--|----------------------------|

--5--5--5--5--5--5--5--5--|--5--5--5--5-5-5--5--5--5-5-|

--------------------------|----------------------------|



---------------------------|--------------------------|

---------------------------|--------------------------|

--5--5-5-5--5--5--5--5--5--|--------------------------|

---------------------------|--3--3--3--3--3--3--3--3--|



----------------------------|-----------------------|--------------------9--9--|

----------------------------|------------------7----|-------------5g7----------|

--------------------5g7-----|----------7------------|-----7--------------------|

--3--3--3--3--3--3-------7--|--5--------------------|--------------------------|



-----------------------|--------------------------|------------------2----|

-----------------------|--------------------2-----|----------2------------|

-----------------------|-----------------------2--|--0--------------------|

--3---------3--3--3----|--3-----3--3--3--3--------|-----------------------|



-------------------------|----------0---------------|

-----2-------------------|------------------7g10----|

-------------0-----0--2--|--3-----------------------|

----------------3--------|--------------------------|



-----12---------------------|------------------------------|

--------------10------------|------------------------------|

--------------------10--10--|--10-------(0)--------8g10----|

----------------------------|------------8------8----------|



-----12-------------------|--------------------------|

--------------10----------|--------------------------|

--------------------10----|--3--3--3--2--2--2--0-----|

--------------------------|--------------------------|



--------------------------|-------------------|--------------------|

--------------------------|-------------------|--------------------|

-----0--0--0--------------|-------------------|--------------------|

--------------3--3--2--0--|--0----------------|--------------------|



--9---9-9----------------|--9---9-9----------------|--9---9-9----------------|

--7---7-7----------------|--7---7-7----------------|--7---7-7----------------|

----------------0--0-0---|----------------0--0-0---|----------------0--0-0---|

-------------------------|-------------------------|-------------------------|



--9---9-9----------------|--9---9-9----------------|--9---9-9------------------|

--7---7-7----------------|--7---7-7----------------|--7---7-7------------------|

----------------0--0-0---|----------------0--0-0---|---------------------------|

-------------------------|-------------------------|-----------------3----3----|



--9---9-9------------------|--9---9-9-----------------|

--7---7-7------------------|--7---7-7-----------------|

---------------------------|--------------------------|

-----------------3----3----|-----------------3----3---|



---------------------------|----------------------------|

---------------------------|--5g7---7-7-------5---7-----|

--5---5-5--------5----5----|--------------------------5-|

---------------------------|----------------------------|



---------------------------|----------------------------|

-----------------7---------|----------------7-7--5-5----|

--5---5-5-------------5----|--5---5-5-----------------5-|

---------------------------|----------------------------|



--------------------7h-9---|--7-------------------------|

-----------------7---------|------7---------5-5--7-7----|

--5---5-5------------------|--------5-----------------5-|

---------------------------|----------------------------|



--------------------7------|------7-7------------------|----------7------------|

-----------------7----7----|---------------------------|------------------5----|

--5---5-5---------------5--|--5--------------5----5----|--5--------------------|

---------------------------|---------------------------|-----------------------|



-----7g9-------7-------12--|-------------------------|-------------------------|

---------------------------|-------14-------12-------|--5----------------------|

---------------------------|-------------------------|----------12-----0--2----|

---------------------------|-------------------------|-------------------------|



---------------2--------|--9---9-9----------------|--9---9-9-----------------|

------------------------|--7---7-7----------7-----|--7---7-7-----------7-----|

--0----0----------0-0---|-------------0-0-----0---|-----------------0------0-|

------------------------|-------------------------|--------------------------|



|--3--|

--9---9-9-----------2-----|--9---9-9--9-----------------|

--7---7-7-----------------|--7---7-7--7-----------------|

-----------------0--------|-----------------------------|

------------------------3-|--------------------3----3---|



--9---9-9------------------|--9---9-9------------------|

--7---7-7------------------|--7---7-7------------------|

---------------------------|---------------------------|

-----------------3----3----|-----------------3----3----|



--9---9-9----------------|-----------------------------|

--7---7-7----------------|-------------7-7-7-----7-----|

-------------0--1--3-4---|--5---5-5----------5-5---5---|

-------------------------|-----------------------------|



--------------------------|--------------------7-----|

--7---7-7------5-----5----|-----------------7--------|

------------------------5-|--5---5-5-------------5---|

--------------------------|--------------------------|



--------------------------7-|--7-----------------------|

----------------7-7--5-5----|--------------------5-7---|

--5---5-5-------------------|------5-5--------5--------|

----------------------------|--------------------------|



--7---7-7------------------|--------------------7-----|

----------------5---7-7----|-----------------7--------|

-------------------------5-|--5---5-5-------------5---|

---------------------------|--------------------------|



---------------------------|--10------------------------|

----------------------7----|-----------------------7----|

--5---5-5--------5---------|-------5-5--------5---------|

---------------------------|----------------------------|



--10-------------------------|--10-------------------------|

--------7---------------7----|--------7---------------7----|

----------5--------5---------|----------5--------5---------|

-----------------------------|-----------------------------|



--10------------------------|--10------------------------|

-----------------------7----|-----------------------7----|

------5--5--------5---------|------4--5--------5---------|

----------------------------|----------------------------|



--10------------------------|--10-------------------------|

-----------------------7----|----------------------7g9----|

------4--5--------5---------|------4--5-------5-----------|

----------------------------|-----------------------------|



--10----------------------|--------------------------|-------------------||

--------------------------|--------------------------|-------------------||

------4--5----5--5--5--5--|--5--5--5--5--5--5--5--5--|--5----------------||

--------------------------|--------------------------|-------------------||



| g grace note

| / s-ide up

| \ s-ide down

| h hammer-on

| p pu---off

| ~ vibrato

| + harmonic

| x Mute note

===============================================================================Added by tabs-database.com and our distinguished partners
Get this song at amazon.com      Ebay     Ringtones Ringtones  


Learn to play: Songwriting, Piano, Harmonica, Guitar
More Led Zeppelin lyrics available at Muzikum

Related Led Zeppelin Tabs

White Summer/black Mountain Side tabs
Cmon Everybody tabs
Friends tabs
Rain Song tabs
Baby Come On Home Bass tabs
Over The Hills & Far Away tabs
Bron Yr Aur (Version 2) tabs
Street Corner Girl Bass tabs
Gallows Pole ( Mandolin ) tabs
The Wanton Song tabs
Living Loving Maid (Shes Just A Woman) tabs
Ten Years Gone tabs
Stairway To Heaven (acoustic) tabs
As Long As I Have You tabs
Bron Yr Aur tabs
The Immagrant Song tabs
Your Time Is Gonna Come tabs
Walters Walk Intro tabs
Bring It Home tabs
Sick Again tabs


Guitar Tabs









All tabs are property and copyright of their owners. All tabs provided for educational purposes only. Privacy Policy, DMCA