Led Zeppelin

The Rover (2) Tabs



More from Led Zeppelin

Led Zeppelin Tabs
Led Zeppelin Chords
Led Zeppelin Bass
Led Zeppelin Lyrics

Transcribed by jimmyjay patton:
Intro
e----------------------------------------------------
B-----------------------------------10p9-9-9--9r9-9--
G------------------------------------9r9-9-9-11p9-9--
D--2-2-2---------------------------------------------
A--2-2-2-----------------------7s9-------------------
E--0-0-0---3--3--5--5--3--5--3-----------------------

e------------------------------------------------
B------------------------------10p9-9------------
G-------------------------------9r9-9------------
D--2----------------------------------5----------
A--2----------------------7s9-----------7p5------
E--0--3--3--5--5--3--5--3-------------------0----

Verse
e------------------------------------
B------------------------------------
G---------4--------------------------
D-----5-----5b4----------------------
A--/7---7-------7-7p5(b6)-5h7--------
E-----------------------------3-0----

Verse 2nd
e-------------------------------
B-------------------------------
G----------4-------4h6-4--------
D------5-----5b4---------5-4----
A----7---7-------7-----------7--
E-------------------------------

Chorus    x2
e---------------------------------------------------
B---------------------------------------------------
G--11-11-11--9-9---7----7s12s11-11-11s14-14-9--9s12-
D--11-11-11--9-9---7----7s12s11-11-11s14-14-9--9s12-
A---9--9--9--7-7---5----5s10s-9--9--9s12-12-7--7s10-
E---------------------------------------------------

e-------------------------------------------
B-------------------------------------------
G-11-11-11s9-9-7--7-7s6-6-4--4-4-2-2--------
D-11-11-11s9-9-7--7-7s6-6-4--4-4-2-2--------
A--9--9--9s7-7-5--5-5s4-4-2--2-2-0-0--------
E------------------------------------3-0----

Chorus 2nd guitar     x2
e---------------------------------9-7-----
B------10-----9-----------10---10---------
G----11-----9---11------11---9------------
D--11-----9-----------11------------------
A-----------------------------------------
E-----------------------------------------


e---------------------------------------------
B------10---9--------7---5-------4------------
G----11--11---9----7---7---6---4---4-2-2------
D--11------------------------------------2----
A---------------------------------------------
E------------------------------------------0--

Bridge to solo			add fill:

e----------------------------|-------------------
B---7--7--7--7--9--9--------|-------------------
G---7--7--7--7--9--9--------|------------9------
D---7--7--7--7--9--9----2---|-------9h11-9------
A------------------------2---|---9h11------------
E------------------------0---|-------------------

solo
e----------------------------------------
B-----------7----------------------------
G---------9----------------2-4s6-4h6p4---
D-----7h9---------------4--------------7-
A-7h9-------------0h2h4------------------
E-------------0h2------------------------
	
e--------------------------9----------------
B---------9h10p9---9-10-12--12-10b12-9------
G----9-11-------11---------------------11-9-
D-11----------------------------------------
A-------------------------------------------
E-------------------------------------------
			
e-----------------------------------------
B------------------------9h10p9---9h10h12-
G------9h11-11------9h11-------11---------
D-9h11---------9h11-----------------------
A-----------------------------------------
E-----------------------------------------

e-9----------------------------------------
B--12-9h10p9--9----------------------------
G-----------11-11p9-11-11p9--9-------------
D--------------------------11-11p9s7-9p7-7-
A------------------------------------------
E------------------------------------------

e---------------------------------------
B---------------------------------------
G-----9-9-9-9-9------9-9-9-9------9-9-9-
D-7h9r----------6s7h9--------6s7h9------
A---------------------------------------
E---------------------------------------

e-------14-13b14-17-14-14p12--17-14p12-
B-14-14---------------------14---------
G--------------------------------------
D--------------------------------------
A--------------------------------------
E--------------------------------------

e---17-14p12--17-14p12-------------------
B-14--------14---------14-14-------------
G----------------------------16-14-------
D----------------------------------16-14-
A----------------------------------------
E----------------------------------------

other fill
e---------------------------------
B---------------------------------
G--------4--------------------9---
D----5-----5b4----------7-5h6-9---
A--7---7-------7--5-5-7-------7---
E---------------------------------

end fills
e-----------------------|-------------------------------
B-----------------------|------12-12------------14p12---
G-----------------------|------12-12-12------12-14p12---
D------5-5--5----5-7p5--|-12h14---------12h14--------14-
A--5h7-------5h7------7-|-------------------------------
E-----------------------|-------------------------------

s- slide to
/- slide up to
r- let ring
p - pull off to
h - hammer on to
Get this song at amazon.com      Ebay     Ringtones Ringtones  


Learn to play: Songwriting, Piano, Harmonica, Guitar
More Led Zeppelin lyrics available at Muzikum

Related Led Zeppelin Tabs

Dazed And Confused tabs
Bron-yr-aur tabs
Kashmir (the Right Way!) tabs
Tea For One tabs
Carouselambra Bass tabs
All My Love Bass tabs
Boogie With Stu tabs
Babe In Gonna Leave You tabs
Night Flight Bass tabs
Ozone Baby Bass tabs
Out On The Tiles tabs
The Battle Of Evermore tabs
South Bound Saurez tabs
Lz Time Of Dying tabs
Songremains tabs
Gallows Pole ( Mandolin ) tabs
Thats The Way tabs
You Shook Me tabs
Baby Come On Home Bass tabs
We're Gonna Groove tabs


Guitar Tabs









All tabs are property and copyright of their owners. All tabs provided for educational purposes only. Privacy Policy, DMCA