Led Zeppelin

The Rain Song Bass Tabs



More from Led Zeppelin

Led Zeppelin Tabs
Led Zeppelin Chords
Led Zeppelin Bass
Led Zeppelin Lyrics



The Rain Song

Led Zeppelin



G|----------------|0---------------|0-------------0-|----------0-0---|

D|----------------|----------------|----------------|----------------|

A|----------------|----------------|----------------|----------------|

E|----------------|----------------|----------------|--------------3-|



G|--------------0-|--0---0---0---0-|--8-8---------0-|--0---0---0---0-|

D|----------------|----------------|----------------|----------------|

A|----------------|----------------|----------------|----------------|

E|----------------|----------------|----------------|----------------|



G|--8---------0-0-|0---------------|

D|----------------|----------------|

A|----------------|----------------|

E|----------------|----------------|



When bass comes back in at approx. 1:35

G|0---------------|0---------------|0-------------0-|--------------0-|

D|----------------|----------------|----------------|----------------|

A|----------------|----------------|----------------|----------------|

E|----------------|----------------|----------------|----------------|



G|--0-0-----------|--0---0---0---0-|--0-0-----------|--0---0---0---0-|

D|--------2-0-----|----------------|----------------|----------------|

A|----------------|----------------|----------------|----------------|

E|--------------3-|----------------|--------------3-|----------------|



G|--0-0-------1-0-|--------0-0-0-0-|----------------|----------------|

D|----------------|-------0--------|----------------|----------------|

A|----------------|----------------|------------3-3-|--3---3---3---3-|

E|----------------|----------------|----------------|----------------|



G|------------1-0-|--------0-0---0-|----------------|----------------|

D|----------------|-------0--------|----------------|----------------|

A|--3---3---------|----------------|-------------33-|--3---3---3333--|

E|----------------|----------------|----------------|----------------|



G|------------1-0-|--------------0-|----------------|----------------|

D|----------------|----------------|----------------|----------------|

A|--3---3---------|----------------|------------333-|--3---3---3-3-3-|

E|----------------|----------------|----------------|----------------|



G|--------------0-|--0-0---0-----0-|--0-0---0-----0-|--0-0---0-----0-|--0-0-0---0-0-0-|

D|----------------|----------20----|----------10----|----------20----|----------------|

A|--3---3-3-3-3---|----------------|----------------|----------------|----------------|

E|----------------|------------3---|------------3---|------------3---|----------------|



G|5------05-0-5-4-|--4-----------4-|5-------5-----7-|---57--7557-7777|

D|----------------|----4-----------|----------5-----|-7--------------|

A|----------------|-------22-2-2---|------------7---|----------------|

E|----------------|----------------|----------------|----------------|



G|5-----0-5-0-5-4-|----4-----------|2---------------|2---------------|----------------|

D|----------------|-----4----------|----------------|----------------|----------------|

A|----------------|------2---2-----|----------------|----------------|----------------|

E|----------------|----------------|----------------|----------------|----------------|



G|0-------------0-|--------9-7-9-0-|--------------0-|----0-----0-0---|

D|----------------|----------------|------------1---|--1-------------|

A|----------------|----------------|----------------|----------------|

E|----------------|----------------|----------------|--------------3-|



G|----------------|----------------|----------------|----------------|----------------|

D|----------2-0---|----------------|------------1---|----------------|----------------|

A|----------------|----------------|----------------|----------------|----------------|

E|--------------3-|--3---3---3---3-|--3-3---------3-|--3---3---3---3-|--3-3---------3-|



G|--------0-0---0-|--------7-0-----|----------------|----------------|

D|-------0--------|------------00--|----------------|----------------|

A|----------------|--------------3-|--3---3---333-3-|--3---3---------|

E|----------------|----------------|----------------|------------4-3-|



G|---------0----0-|--------7-------|----------------|----------------|

D|-----0----------|----------------|----------------|----------------|

A|----------------|------------533-|--3---3-3-3---3-|--3---3---3-----|

E|----------------|----------------|------------3---|------------4-3-|



G|----------------|----3-----------|----------------|----------------|

D|--------535-535-|-----35-5-535---|----------------|----------------|

A|------5---------|-------------53-|--3---3---3---3-|--33333---3-3---|

E|----------------|----------------|------------3---|--------------3-|



G|----------------|----------------|----------------|----------------|

D|--5555--5-3202--|--------5-------|------------02--|----------------|

A|----------------|----------5-4-3-|--3---3-3-3---3-|--3---3-3-3-3---|

E|--------------3-|----------------|----------------|--------------3-|



G|----------------|----------------|----------------|-----9-77-4-2---|

D|----------------|--------55-55---|--------5--55---|-------------20-|

A|----------7575--|----------------|----------------|----------------|

E|--3-3---------3-|--3-3---------3-|--------------3-|----------------|



G|----------------|----------------|----------------|----------------|

D|----------------|----------------|----------------|----------------|

A|3-------3---3-2-|------222---2-0-|0---------------|(0)-------------|

E|----------3--3--|----------2-----|----------------|----------------|



G|----------------|----------------|----------------|--44420---------|

D|--------5---5-5-|--------5---5---|----------------|--------20-0----|

A|-------5--5--5--|-------------755|3---3---3-2-0---|------------2020|

E|3---3-----------|----------------|-------3------3-|----------------|



G|----1212129-420-|--0-00------0---|------979-5-220-|-0--0-----------|

D|----------------|------3-3333--20|----------------|--2--0-20-------|

A|----------------|----------------|3---------------|----------3-20--|

E|3---------------|----------------|----------------|--------------30|



G|--------12912912|---------------4|5---5-3---3-----|------40--------|

D|----5-----------|----5-3---3-357-|--------5---5---|--5-5---20----02|

A|----------------|----------------|-------------5--|---5-5----20-2--|

E|3---------------|----------------|--------------3-|------------3---|



G|0---121212121210|--0-------------|----------------|----------------|

D|----------------|----3-3-3-3-3-20|----------------|----------------|

A|----------------|----------------|3---3--33-2-0---|----------------|

E|----------------|----------------|--------------3-|------------4-3-|



G|----------------|----------------|----------55-5--|----------------|

D|-------5-5------|--------5-55----|------------5---|----------------|

A|------5---------|------------533-|--3---3-------3-|--3---3---------|

E|----------------|3---------------|----------------|------------43--|

These are the seasons of emotions....



G|------------7---|------------7-5-|--5---5-32-20---|----------------|

D|-------55-5---5-|----------------|-------------0--|--------------5-|

A|--2-55----------|----------3-----|--------------3-|--3---3-3---3---|

E|----------------|3---------------|----------------|----------------|



G|----------------|----------------|----------------|----------------|

D|-------5-5--5-5-|----------------|----------------|--------------5-|

A|------5---------|--------5-55553-|--3---3333333-3-|--3-3--33-3333--|

E|----------------|----------------|----------------|----------------|



G|----------------|----------------|--------55555555|5---------------|

D|--------------5-|--5-5-----------|----------------|--------------5-|

A|----5-5-5-5-5---|-------53--5333-|--3---3---------|--3---3-----5---|

E|3-3-------------|----------------|----------------|----------------|



G|----------------|----------------|----------------|----------------|

D|--5-5-----5-5-5-|--5-5---55555-5-|--5-5-555-55----|----------------|

A|----------------|----------------|------------53--|------------0-2-|

E|----------------|----------------|--------------3-|--3---3---3-----|



G|----------------|--4-4-----------|----------------|----------------|

D|--------2--5----|--------4-0-----|----------------|----------------|

A|3------3--3--32-|------------2---|0---------------|(0)-------------|

E|----------------|----------------|----------------|----------------|



G|----------------|----------------|----------------|----------------|

D|5---------------|(5)-------------|----------------|--------------0-|

A|----------------|----------------|3-------------2-|--------2-3-----|

E|----------------|----------------|----------------|----------------|



G|----------------|----------------|----------------|----------------|

D|----------1---3-|----3-----------|----------------|----------------|

A|----------------|----------------|----------------|----------------|

E|----------------|----------------|----------------|----------------|



G|----------------|----------------|----------------|----------------|

D|----------------|----------------|----------------|----------------|

A|----------------|----------------|----------------|----------------|

E|----------------|----------------|----------------|----------------|



Led Zeppelin Is #1 Band



Added by tabs-database.com and our distinguished partners
Get this song at amazon.com      Ebay     Ringtones Ringtones  


Learn to play: Songwriting, Piano, Harmonica, Guitar
More Led Zeppelin lyrics available at Muzikum

Related Led Zeppelin Tabs

No Quarter(100%) tabs
Stairway To Heavin tabs
Swan Song tabs
Wearing And Tearing tabs
The Girl I Love Intro tabs
Heartbreaker I Swear It's 100 Freakin % Perfect tabs
Heart Breaker (intro) tabs
Stair Way To Heaven tabs
The Rover tabs
Imigrant Song tabs
Living Loving Maid (Shes Just A Woman) tabs
Custard Pie tabs
What Is And What Should Never Be Bass tabs
The Song Remains The Same tabs
I'm Gonna Crawl tabs
Led Zep I tabs
The Lemon Song (intro) tabs
Dazed And Confused Tsrts tabs
Black Dog (10000% Correct) tabs
Going To California tabs


Guitar Tabs









All tabs are property and copyright of their owners. All tabs provided for educational purposes only. Privacy Policy, DMCA