Led Zeppelin

The Ocean-perfect Bass Tabs



More from Led Zeppelin

Led Zeppelin Tabs
Led Zeppelin Chords
Led Zeppelin Bass
Led Zeppelin Lyrics



Main:
g:--------------------------------------------------------------------
d:---------7--7--5------------------5--------7-----7-----------7------
a:-----------------7----------5--7-----5--7-----4-----4--5--7---------
e:--------------------8-----------------------------------------------

Chorse:

g:-------------------------------------------
d:-------------------------------------------
a:------5-5-5-----3-3-3---------------3-5-5--
e:----------------------------5-3-5----------

solo:
changes VERY often so improvise walking up and down in the key of A.


order:
WAIT FOR ABOUT 8 SECONDS WHAIL JOHN BONAM (DRUMMER) TALKS
main x 4
chorse x 4
main x 4
chorse x 4
main x 4
chorse: x 4
PAUSE FOR ABOUT 23 SECONDS
chorse: 4
main: x 4
solo till end



Get this song at amazon.com      Ebay     Ringtones Ringtones  


Learn to play: Songwriting, Piano, Harmonica, Guitar
More Led Zeppelin lyrics available at Muzikum

Related Led Zeppelin Bass Tabs

Black Dog bass
Achillies Last Stand bass
Candy Store Rock bass
Dryer Maker bass
South Bound Suarez bass
Dazed And Confused (correct) bass
Dazed And Confuzed bass
Most High bass
Gallows Pole 99 9% Correct bass
Boogie With Stu bass
Ten Years Gone bass
I Can't Quit You Baby (version From "coda") bass
Trampeled Underfoot bass
Dazed & Confused bass
The Crunge bass
Black Dog Bass Tab bass
Bring It On Home- The Whole Song bass
Stairway To Heaven bass
Fool In The Rain bass
Whole Lotta Love bass


Guitar Tabs









All tabs are property and copyright of their owners. All tabs provided for educational purposes only. Privacy Policy, DMCA