Led Zeppelin

The Ocean (live Version) Tabs



More from Led Zeppelin

Led Zeppelin Tabs
Led Zeppelin Chords
Led Zeppelin Bass
Led Zeppelin Lyrics




(Intro) Repeat 4x
|-------------------------------------|
|-------------------------------------|
|-------------------------------------|
|-7-7-5-----------5----7-----7--------|
|-------7-----5-7--5-7---4/5---5-7----|
|---------8\0-------------------------|


(Verse) Repeat 4x
|-------------------------------------|
|-------------------------------------|
|-7-7-7-7--5-5-5-5--2---2--5--7-7-7---|
|-7-7-7-7--5-5-5-5--2---2--5--7-7-7---|
|-5-5-5-5--3-3-3-3--0---0--3--5-5-5---|
|---------------------3---------------|


(Chorus) Repeat 4x
|-------------------------------------|
|-------------------------------------|
|-------------------------------------|
|-7-7-5-----------5----7-----7--------|
|-------7-----5-7--5-7---4-4---5-7-7--|
|---------8\0-------------------------|



(Verse 2) Repeat 4x
|----------------------------------------------|
|----------------------------------------------|
|-7-7-7-7--5-5-5-5--2---2--5--7-7-7--10\6------|
|-7-7-7-7--5-5-5-5--2---2--5--7-7-7--10\6------|
|-5-5-5-5--3-3-3-3--0---0--3--5-5-5--10\6------|
|---------------------3------------------------|

Then the solo then repeat the verse 2 then the chorus and then
verse 2
then end with

(outro) repeat 2x
|------------------------------------|
|-----------------10-9-7-------------|
|-6----------------------9-6---------|
|---9-7-6--------------------9-7-9---|
|---------9-7------------------------|
|-------------9-7--------------------|



Get this song at amazon.com      Ebay     Ringtones Ringtones  


Learn to play: Songwriting, Piano, Harmonica, Guitar
More Led Zeppelin lyrics available at Muzikum

Related Led Zeppelin Tabs

Some Phs Graff Pres tabs
How Many More Times Solo tabs
What Is And What Should Never Be Bass tabs
The Crunge tabs
Dancing Days tabs
The Girl I Love Intro tabs
Achilles Last Stand Remasters tabs
The Immigrant Song (with Lyrics) tabs
Bring It On Home...distorted Part tabs
Black Dog (live Version) tabs
The Lemon Song (intro) tabs
Since Ive Been Loving You tabs
Dancing Days Bass tabs
Ocean, The tabs
Physical Graffiti Disc 1 tabs
Trampled Underfoot Bass tabs
Stair Way To Heaven tabs
Songremains tabs
Wah Wah Song tabs
Hey Hey What Can I Do tabs


Guitar Tabs









All tabs are property and copyright of their owners. All tabs provided for educational purposes only. Privacy Policy, DMCA