Led Zeppelin

The Ocean (live At Madison Square Garden) Tabs



More from Led Zeppelin

Led Zeppelin Tabs
Led Zeppelin Chords
Led Zeppelin Bass
Led Zeppelin Lyrics




Just the main riff, sounds pretty similiar to how they played
it at Madison Square Garden...

/ = slide up
\ = slide down

e|------------------------------------|
B|------------------------------------|
G|------------------------------------|
D|-5/7-7-5------------5-----7---7-----|
A|---------7------5-7---5-7---7---5-7-|
E|-----------8\-----------------------|

e|---------------------------|
B|---------------------------|
G|---------------------------|
D|-7-7-7--5-5-5--------7-7-7-|
A|-5-5-5--3-3-3--7-5-7-5-5-5-|
E|---------------5-3-5-------|



Get this song at amazon.com      Ebay     Ringtones Ringtones  


Learn to play: Songwriting, Piano, Harmonica, Guitar
More Led Zeppelin lyrics available at Muzikum

Related Led Zeppelin Tabs

No Quarter tabs
Stairway To Heaven 100% Right tabs
For Your Life tabs
Your Time Is Gonna Come tabs
Baby Come On Home tabs
Communication Breakdown tabs
Bron Y Aur Stomp2 tabs
Tangerine tabs
What Is & What Should Never Be tabs
Lemon Song tabs
Black Dog3 tabs
Babe Im Gonna Leave You Tab tabs
Jennings Farm Blues tabs
Swan Song tabs
I Got A Women Intro tabs
Bron-yr-aur tabs
Black Dog4 tabs
Dyer Maker tabs
White Summer/black Mountain Side tabs
Ramblin Man tabs


Guitar Tabs









All tabs are property and copyright of their owners. All tabs provided for educational purposes only. Privacy Policy, DMCA