Led Zeppelin

The Ocean (complete) Bass Tabs



More from Led Zeppelin

Led Zeppelin Tabs
Led Zeppelin Chords
Led Zeppelin Bass
Led Zeppelin Lyrics




JPJ!

G :2---2-----------|----------------|------------2--*|----2-------|
D :--------5-2-----|----------------|--2-5--*--2-----|----------2-|
A :------------3---|*---------------|5-------5-------|4--*--5--*--|
E :----------------|----------------|----------------|------------|

G :2---2-----------|----------------|------------2--*|----2-------|
D :--------5-2-----|----------------|--2-5--*--2-----|----------2-|
A :------------3---|*---------------|5-------5-------|4--*--5--*--|
E :----------------|----------------|----------------|------------|

G :2---2-----------|----------------|------------2--*|----2-------|
D :--------5-2-----|----------------|--2-5--*--2-----|----------2-|
A :------------3---|*---------------|5-------5-------|4--*--5--*--|
E :----------------|----------------|----------------|------------|

G :2---2-----------|----------------|------------2--*|----2-------|
D :--------5-2-----|----------------|--2-5--*--2-----|----------2-|
A :------------3---|*---------------|5-------5-------|4--*--5--*--|
E :----------------|----------------|----------------|------------|

G :----------------|----------------|----------------|----------------|
D :----------------|----------------|----------------|----------------|
A :5-5-5-5---*-3-3-|3-3---*-0-*-----|0-*-5-5-5-5---*-|----------------|
E :----------------|------------3-*-|----------------|----------------|

G :----------------|----------------|----------------|----------------|
D :----------------|----------------|----------------|----------------|
A :5-5-5-5---*-3-3-|3-3---*-0-*-----|0-*-5-5-5-5---*-|----------------|
E :----------------|------------3-*-|----------------|----------------|

G :----------------|----------------|----------------|----------------|
D :----------------|----------------|----------------|----------------|
A :5-5-5-5---*-3-3-|3-3---*-0-*-----|0-*-5-5-5-5---*-|----------------|
E :----------------|------------3-*-|----------------|----------------|

G :----------------|----------------|----------------|------------|
D :----------------|----------------|----------------|4---x-5--*6-|
A :5-5-5-5---*-3-3-|3-3---*-0-*-----|0-*-5-5-5-5---*-|------------|
E :----------------|------------3-*-|----------------|------------|

G :2---2-----------|----------------|------------2--*|----2-------|
D :--------5-2-----|----------------|--2-5--*--2-----|----------2-|
A :------------3---|x-x-x-x-x-x-x-x-|5-------5-------|4--*--5--*--|
E :----------------|----------------|----------------|------------|

G :2---2-----------|----------------|------------2--*|----2-------|
D :--------5-2-----|----------------|--2-5--*--2-----|----------2-|
A :------------3---|x-x-x-x-x-x-x-x-|5-------5-------|4--*--5--*--|
E :----------------|----------------|----------------|------------|

G :2---2-----------|----------------|------------2--*|----2-------|
D :--------5-2-----|----------------|--2-5--*--2-----|----------2-|
A :------------3---|x-x-x-x-x-x-x-x-|5-------5-------|4--*--5--*--|
E :----------------|----------------|----------------|------------|

G :2---2-----------|----------------|------------2--*|----2-------|
D :--------5-2-----|----------------|--2-5--*--2-----|----------2-|
A :------------3---|x-x-x-x-x-x-x-x-|5-------5-------|4--*--5--*--|
E :----------------|----------------|----------------|------------|

G :----------------|----------------|----------------|----------------|
D :----------------|----------------|----------------|----------------|
A :5-5-5-5---*-3-3-|3-3---*-0-*-----|0-*-5-5-5-5---*-|----------------|
E :----------------|------------3-*-|----------------|----------------|

G :----------------|----------------|----------------|----------------|
D :----------------|----------------|----------------|----------------|
A :5-5-5-5---*-3-3-|3-3---*-0-*-----|0-*-5-5-5-5---*-|----------------|
E :----------------|------------3-*-|----------------|----------------|

G :----------------|----------------|----------------|----------------|
D :----------------|----------------|----------------|----------------|
A :5-5-5-5---*-3-3-|3-3---*-0-*-----|0-*-5-5-5-5---*-|----------------|
E :----------------|------------3-*-|----------------|----------------|

G :----------------|----------------|----------------|------------|
D :----------------|----------------|----------------|4---x-5--*6-|
A :5-5-5-5---*-3-3-|3-3---*-0-*-----|0-*-5-5-5-5---*-|------------|
E :----------------|------------3-*-|----------------|------------|

G :2---2-----------|----------------|------------2--*|----2-------|
D :--------5-2-----|----------------|--2-5--*--2-----|----------2-|
A :------------3---|x-x-x-x-x-x-x-x-|5-------5-------|4--*--5--*--|
E :----------------|----------------|----------------|------------|

G :2---2-----------|----------------|------------2--*|----2-------|
D :--------5-2-----|----------------|--2-5--*--2-----|----------2-|
A :------------3---|x-x-x-x-x-x-x-x-|5-------5-------|4--*--5--*--|
E :----------------|----------------|----------------|------------|

G :2---2-----------|----------------|------------2--*|----2-------|
D :--------5-2-----|----------------|--2-5--*--2-----|----------2-|
A :------------3---|x-x-x-x-x-x-x-x-|5-------5-------|4--*--5--*--|
E :----------------|----------------|----------------|------------|

G :2---2-----------|----------------|------------2--*|----2-------|
D :--------5-2-----|----------------|--2-5--*--2-----|----------2-|
A :------------3---|x-x-x-x-x-x-x-x-|5-------5-------|4--*--5--*--|
E :----------------|----------------|----------------|------------|

G :----------------|----------------|----------------|----------------|
D :----------------|----------------|----------------|----------------|
A :5-5-5-5---*-3-3-|3-3---*-0-*-----|0-*-5-5-5-5---*-|----------------|
E :----------------|------------3-*-|----------------|----------------|

G :----------------|----------------|----------------|----------------|
D :----------------|----------------|----------------|----------------|
A :5-5-5-5---*-3-3-|3-3---*-0-*-----|0-*-5-5-5-5---*-|----------------|
E :----------------|------------3-*-|----------------|----------------|

G :----------------|----------------|----------------|----------------|
D :----------------|----------------|----------------|----------------|
A :5-5-5-5---*-3-3-|3-3---*-0-*-----|0-*-5-5-5-5---*-|----------------|
E :----------------|------------3-*-|----------------|----------------|

G :----------------|----------------|----------------|----2-------|
D :----------------|----------------|----------------|----------2-|
A :5-5-5-5---*-3-3-|3-3---*-0-*-----|0-*-5-5-5-5---*-|4--*--5--*--|
E :----------------|------------3-*-|----------------|------------|

G :2---------------|----------------|*---------------|----------------|
D :----------------|----------------|----------------|----------------|
A :----------------|----------------|----------------|----------------|
E :----------------|----------------|----------------|----------------|

G :----------------|----------------|----------------|----------------|
D :----------------|----------------|----------------|----------------|
A :----------------|----------------|----------------|----------------|
E :----------------|----------------|----------------|----------------|

G :----------------|----------------|----------------|----------------|
D :----------------|----------------|----------------|----------------|
A :----------------|----------------|----------------|----------------|
E :----------------|----------------|----------------|----------------|

G :----------------|----------------|----------------|----------------|
D :----------------|----------------|----------------|----------------|
A :----------------|----------------|----------------|----------------|
E :----------------|----------------|----------------|----------------|

G :----------------|----------------|----------------|----------------|
D :----------------|----------------|----------------|----------------|
A :5-5-5-5---*-3-3-|3-3---*-0-*-----|0-*-5-5-5-5---*-|----------------|
E :----------------|------------3-*-|----------------|----------------|

G :----------------|----------------|----------------|----------------|
D :----------------|----------------|----------------|----------------|
A :5-5-5-5---*-3-3-|3-3---*-0-*-----|0-*-5-5-5-5---*-|----------------|
E :----------------|------------3-*-|----------------|----------------|

G :----------------|----------------|----------------|----------------|
D :----------------|----------------|----------------|----------------|
A :5-5-5-5---*-3-3-|3-3---*-0-*-----|0-*-5-5-5-5---*-|----------------|
E :----------------|------------3-*-|----------------|----------------|

G :----------------|----------------|----------------|------------|
D :----------------|----------------|----------------|4---x-5--*6-|
A :5-5-5-5---*-3-3-|3-3---*-0-*-----|0-*-5-5-5-5---*-|------------|
E :----------------|------------3-*-|----------------|------------|

G :2---2-----------|----------------|------------2--*|----2-------|
D :--------5-2-----|----------------|--2-5--*--2-----|----------2-|
A :------------3---|x-x-x-x-x-x-x-x-|5-------5-------|4--*--5--*--|
E :----------------|----------------|----------------|------------|

G :2---2-----------|----------------|------------2--*|----2-------|
D :--------5-2-----|----------------|--2-5--*--2-----|----------2-|
A :------------3---|x-x-x-x-x-x-x-x-|5-------5-------|4--*--5--*--|
E :----------------|----------------|----------------|------------|

G :2---2-----------|----------------|------------2--*|----2-------|
D :--------5-2-----|----------------|--2-5--*--2-----|----------2-|
A :------------3---|x-x-x-x-x-x-x-x-|5-------5-------|4--*--5--*--|
E :----------------|----------------|----------------|------------|

G :2---2-----------|----------------|------------2--*|----2-------|
D :--------5-2-----|----------------|--2-5--*--2-----|----------2-|
A :------------3---|x-x-x-x-x-x-x-x-|5-------5-------|4--*--5--*--|
E :----------------|----------------|----------------|------------|

G :------------------------------------------------|
D :------------------------------------------------|
A :5-----------2-----------------------------------|
E :------------------------5-----------2-----------|

G :------------------------------------------------|
D :------------------------------------------------|
A :------------4-----------2-----------------------|
E :0-----------------------------------4-----------|

G :------------------------------------------------|
D :------------------------------------------------|
A :5-----------2-----------------------------------|
E :------------------------5-----------2-------x---|

G :------------------------------------------------|
D :------------------------------------------------|
A :------------------------------------------------|
E :0-----------2-----------3-----------4-----------|

G :------------------------------------------------|
D :------------------------3-------x---4-----------|
A :5-----------7-----------------------------------|
E :------------------------------------------------|

G :------------------------------------------------|
D :2-----------4-----------5-----------6-----------|
A :------------------------------------------------|
E :------------------------------------------------|

G :------------------------------------------------|
D :------------------------------------------------|
A :5-----------2-----------------------------------|
E :------------------------5-----------2-------x---|

G :------------------------------------------------|
D :------------------------------------------------|
A :------------------------------------------------|
E :0-----------2-----------3-----------4-----------|

G :------------------------------------------------|
D :------------------------------------4-------2---|
A :--------------------4---5-----------------------|
E :5-------5---------------------------------------|

G :------------------------------------------------|
D :------------------------------------------------|
A :--------2---------------------------------------|
E :------------0-----------------------*-----------|

G :------------------------------------------------|
D :------------------------------------4-------2---|
A :--------------------4---5-----------------------|
E :5-------5---------------------------------------|

G :------------------------------------------------|
D :------------------------------------------------|
A :--------2---------------------------------------|
E :------------0-----------------------*-----------|

G :------------------------------------------------|
D :------------------------------------------------|
A :5-----------2-----------------------------------|
E :------------------------5-----------2-------1---|

G :------------------------------------------------|
D :------------------------------------------------|
A :------------4-----------2-----------------------|
E :0-----------------------------------4-----------|

G :------------------------2-----------4---2-------|
D :------------4-------------------------------4---|
A :5-----------------------------------------------|
E :------------------------------------------------|

G :------------------------------------------------|
D :2-----------------------------------------------|
A :------------5-----------4-----------2-------0---|
E :------------------------------------------------|

G :------------4-----------2-----------------------|
D :------------------------------------4-----------|
A :5-----------------------------------------------|
E :------------------------------------------------|

G :------------------------------------------------|
D :2-----------------------------------------------|
A :------------4-----------2-----------0-------4---|
E :------------------------------------------------|

G :------------------------------------------------|
D :--------------------------------------------4---|
A :5-----------4-----------2-----------0-----------|
E :------------------------------------------------|

G :------------------------------------------------|
D :------------------------------------------------|
A :------------------------------------------------|
E :0-----------2-----------3-----------4-----------|

G :------------------------------------------------|
D :------------------------------------4-------2---|
A :--------------------4---5-----------------------|
E :5-------5---------------------------------------|

G :------------------------------------------------|
D :------------------------------------------------|
A :--------2---------------------------------------|
E :------------0-----------------------*-----------|

G :------------------------------------------------|
D :------------------------------------4-------2---|
A :--------------------4---5-----------------------|
E :5-------5---------------------------------------|

G :------------------------------------------------|
D :------------------------------------------------|
A :--------2---------------------------------------|
E :------------0-----------------------*-----------|

G :------------------------------------------------|
D :------------------------------------------------|
A :5-------5---2-----------------------------------|
E :------------------------5-----------2-----------|

G :------------------------------------------------|
D :------------------------------------------------|
A :------------------------------------------------|
E :0-----------2-----------3-----------4-----------|

G :------------------------2-----------4---2-------|
D :------------4-------------------------------4---|
A :5-----------------------------------------------|
E :------------------------------------------------|

G :------------------------------------------------|
D :2-----------------------------------------------|
A :------------5-----------4-----------2-------0---|
E :------------------------------------------------|

G :------------------------------------------------|
D :--------4---------------2-----------4-----------|
A :5-----------5-----------------------------------|
E :------------------------------------------------|

G :------------------------------------------------|
D :2-----------------------------------2-------1---|
A :------------------------2-----------------------|
E :------------4-----------------------------------|

G :------------------------------------------------|
D :--------------------------------------------2---|
A :5-------5---3-----------2-----------0-----------|
E :------------------------------------------------|

G :------------------------------------------------|
D :------------------------------------------------|
A :------------------------------------------------|
E :0-----------2-----------3-----------4-----------|

G :------------------------------------------------|
D :------------------------------------4-------2---|
A :--------------------4---5-----------------------|
E :5-------5---------------------------------------|

G :------------------------------------------------|
D :------------------------------------------------|
A :--------2---------------------------------------|
E :------------0-----------------------*-----------|

G :------------------------------------------------|
D :------------------------------------4-------2---|
A :--------------------4---5-----------------------|
E :5-------5---------------------------------------|

G :------------------------------------------------|
D :------------------------------------------------|
A :--------2---------------------------------------|
E :------------0-----------------------------------|

G :------------------------------------------------|
D :------------------------------------------------|
A :------------------------------------------------|
E :-----------------------------------------------*|



Get this song at amazon.com      Ebay     Ringtones Ringtones  


Learn to play: Songwriting, Piano, Harmonica, Guitar
More Led Zeppelin lyrics available at Muzikum

Related Led Zeppelin Bass Tabs

Out On The Tiles bass
When The Levee Breaks Standard Tuning bass
Black Country Woman bass
Black Dog bass
Moby Dick bass
Good Times Bad Times bass
The Girl I Love She Got Long Black Wavu Hair bass
Living Loving Maid bass
Black Dog Correct bass
Darlene bass
Wearing And Tearing bass
Stairway To Heaven( Out Of Book, Perfect No Questions Asked) bass
Ramble On (complete) bass
Kashmir bass
Celebration Day bass
Dancin Days bass
Street corner girl bass
Misty Mountain Hop bass
How Many More Times bass
Trampled Under Foot bass


Guitar Tabs









All tabs are property and copyright of their owners. All tabs provided for educational purposes only. Privacy Policy, DMCA