Led Zeppelin

The Ocean (100% Correct) Bass Tabs



More from Led Zeppelin

Led Zeppelin Tabs
Led Zeppelin Chords
Led Zeppelin Bass
Led Zeppelin Lyrics




The rhythm is really hard on the main riff, so I advise either
playing along with the song, or with a really good drummer who
knows what he's doing. FYI: Half a beat is dropped every other
measure during the riff.

Standard Tuning (EADG)

G|------------X-X-----0-----2----------
D|-7-7--------X-X-0-2---0-2-----7----7- X4 (RIFF 1)
A|-----10-7---X-X----------------------
E|----------9-X-X-------------9---10---

G|-------------------------------------
D|------------------------------------- X4 (RIFF 2)
A|-5-5-5-5-3-3-3-3-----3-5-5-5-5--17/5-
E|-----------------5-3-----------------

(RIFF 1)

(RIFF 2)

(RIFF 1)

(REST FOR THE "LA LA'S")

(RIFF 2)

(RIFF 1)

G|---------7-9-----------
D|-----7-9-----11-9------ X3 (RIFF 3)
A|-5-9--------------11-7-
E|-----------------------

G|-----------------
D|----------------- X2 (RIFF 4)
A|-----5-5---------
E|-5-5-----5-0-5-0-

Then it's just Riffs 3 and 4 repeated for the rest of the song.
This is a fun song once you get it down. Enjoy!



Get this song at amazon.com      Ebay     Ringtones Ringtones  


Learn to play: Songwriting, Piano, Harmonica, Guitar
More Led Zeppelin lyrics available at Muzikum

Related Led Zeppelin Bass Tabs

Rock And Roll(studio Version) bass
In The Light 4 String bass
Trampled Under Foot bass
I Can't Quit You Baby bass
Out On The Tiles (complete) bass
Moby Dick bass
Dancing Days bass
Achillies Last Stand bass
Hots On For Nowhere bass
The Ocean (complete) bass
Black Country Woman bass
Misty Moutain Hop bass
Nobodys Fault But Mine bass
You Shook Me bass
Dyer Maker bass
Moby Dick - 110% Correct Without A Doubt bass
D'yer Mak'er (complete) bass
Heartbreaker Complete bass
How Many More Times Intro bass
Darlene bass


Guitar Tabs









All tabs are property and copyright of their owners. All tabs provided for educational purposes only. Privacy Policy, DMCA