Led Zeppelin

The Lemon Song Tabs



More from Led Zeppelin

Led Zeppelin Tabs
Led Zeppelin Chords
Led Zeppelin Bass
Led Zeppelin Lyrics

The other Lemon Song that they have at FTP isn't complete, so
again it is up to me, the mighty Zil, to make up for it.
On this song, Jimmy Page uses a Les Paul set to treble. The
amp is set to distortion, and at the "quiet part," Jimmy uses a
delay pedal set for 4 times repetition. I love this song, and it's
one of my favorites to play. John Paul Jones really kicks ass in
this song, too. Because this is such a long song, part of it is over there-->


The Lemon Song
from the album Led Zeppelin II
by John Paul Jones, Jimmy Page, John Bonham, & Robert Plant

7\ = slide X = percussive sound 12^14 = hammer on
~~ = vibrato ) = bend 14^12 = pull off
)\ = bend & release |
pm = palm muting 12 = hold bend & play

Even
gliss
~~

With pick and fingers ~~~~~~~~
e|--0--0---0--0---0--0---0-----------------------------------------------------0--0---0--0---0--0---0---------------------------------------------------
B|--0--0---0--0---0--0---0------------8-------X-------X------8---------(8)\----0--0---0--0---0--0---0------------8----X----X----8--------12------12--12-
G|------------------------------------7-------X-------X------7---------(7)\-\------------------------------------7----X----X----7--------12------12--12-
D|------------------------------------6-------X-------X------6---------(6)\-\------------------------------------6----X----X----6----12--12------12--12-
A|------------------------------------7-------X-------X------7---------(7)\-\------------------------------------7----X----X----7------------14---------
E|--0--0---4--4---5--5---7\-------0-----------------------------------------\--0--0---0--0---0--0---7--------0------------------------------------------
~~~
Let Ring
e|-----------0--0---0--0---0--0---0----------------------------------------------------------------------------0--0---0---------------------------------
B|--(12)\----0--0---0--0---0--0---0------------8----X----X----8-----------3------------------------------------0--0---0------0------8----X----X----8----
G|--(12)\--------------------------------------7----X----X----7---0--2^4---------2^4^2^0--------------------------------------------7----X----X----7----
D|--(12)\--------------------------------------6----X----X----6--------------------------2^0----------------------------------------6----X----X----6----
A|---------------------------------------------7----X----X----7---------------------------------------------------------------------7----X----X----7----
E|-----------0--0---4--4---5--5---7-------0------------------------------------------------------0--0---4--4---5--5---7------0--------------------------

1.I should have quit you a long time a go

even gliss. ~~~~ ~~~~~~
e|-------/-----------------------0--0---0--0---0--0---0----------------------------------------------0--0---0--0---0--0---0---0-------------------------
B|--(8)/-/-----------------------0--0---0--0---0--0---0---0-----8-----X--------8-------------(8)-\---0--0---0--0---0--0---0---0-----8-------X----8------
G|--(7)/-/------------------------------------------------------7-----X--------8-------------(8)-\---0--0---0--0---0--0---0---0-----8-------X----8------
D|--(6)/-/------------------------------------------------------6-----X--------6-------------(6)-\----------------------------------6-------X----6------
A|--(7)/--------------------------------------------------------7-----X--------7-------------(7)-\----------------------------------7-------X----7------
E|-------------------------------0--0---4--4---5--5---7---0------------------------------------------0--0---4--4---5--5---7---0-------------------------

oh yeah yeah long time ago
_ _ ~~~~~ ~~~~
e|-----------------------------------0--0---0--0---0---------------------|-------\------------------0--0---0--0---0--0---0---0--------------------------
B|-----------------------------------0--0---0--0---0---------------------|--------|-----------------0--0---0--0---0--0---0---0------8----X---X----8-----
G|-------------------------------------------------------------2-----(2)-|--------|-------------------------------------------------7----X---X----7-----
D|------------5------------------------------------------------2------2--|----------------------------------------------------------6----X---X----6-----
A|--5---5^7-------5---5^7-----0--0---4--4---5--5---7-----0-----0------X-/-----------------------------------------------------------7----X---X----7-----
E|--------------------------------------------------------------------3---------------(3)-----------0--0---4--4---5--5---7---0--------------------------

I wouldn't be here my children down on this killin' floor ~~~~~~~~
~~~~~~~ - - - - - -
e|------------------------------------------------------------------------------------------------------------------------------)----|---|---|----------
B|-----------------------------3---------3-------------3------3----------------2^3------3--2--2----2--------------------------15----15--15--15------12--
G|--------------------------------2------------2----------2------2--------0----------0----------------0--2--0--0--0-------------------------------------
D|-----------------------------------1------------1---------------------------------------------------------------0-------------------------------------
A|--(6)-------------------------------------------------------------0-----------------------------------------------------------------------------------
E|---4-----5----6----7----------------------------------------------------------------------------------------------------------------------------------

I should have listend baby to my second mind
~~~ ~~~ ~~~
e|-----------------------------------------------------------------------------0--0---0--0---0--0---0----0----------------------------------/-----------
B|--12-------------------------------------------------------------------------0--0---0--0---0--0---0----0------8---------8------------(8)/-/-----------
G|------14--X--12-------------------12--------------------------------------------------------------------------7----0----7------------(7)/-/-----------
D|-----------------14---12--13--14-------14--12-----------------12----------------------------------------------6-----0---6------------(6)/-/-----------
A|--------------------------------------------------12--13--14------14--(14)\-----------------------------------7---------7------------(7)/-------------
E|-----------------------------------------------------------------------------0--0---4--4---5--5---7----0----------------------------------------0--0--

oh, I should have listend baby to my second
~~~ - - ~~~
e|--0--0---0--0---0----0----------------------------------------------------------------0-------0---0--0---0-------------------|-----|---------------0--
B|--0--0---0--0---0----0-----8----------8---(8)\--------3-------------------------------0-------0---0--0---0-------------------|-----|---------------0--
G|---------------------------7----------7---(7)\-0--2^4---2^4^2^1-----------------------------------------------------2--------|-----|------------------
D|---------------------------6----7^5---6---(6)\------------------2^0-------------------------------------------------2----2---|-----|------------------
A|---------------------------7----------7---(7)\------------------------------------0---4-------4---5--5---7----0-----0----X--/-------------------------
E|--4--4---5--5---7----0-------------------------------------------------------0-------------------------------------------3/--------------3------0--0--

mind. Every time I go away and leave you darlin'
~~~~~ ~~~~ ~~~~
e|--0--0---0-----0----0---------------------------------------------------------------------------------------------------------------------------------
B|--0--0---0-----0----0-----0-----8-------X-----8----(8)-\-----------------------------------------------------------------------------------------2----
G|--------------------------------7-------X-----7----(7)-\-\-----------------------------------7-----------------7-------7------7---7----------0--------
D|--------------------------------6-------X-----6----(6)-\-\---------------------------------------7-------------7-------7------7---7-------------------
A|--------------------------------7-------X-----7----(7)-\-\-------------------------------------------9---7--9------9----------------------0-----------
E|--4--4---5-----5----7-----0------------------------------\--0^4------5-------6------7-----------------------------------------------------------------

send me the blues way down the line. oh!
- - - - -
e|---------0----------0---0---------------------)----|---|----|--------------------------------------------------16--16\---------16--16--14--12--12\----
B|--------------------2---2---2---------------15----15--15---15---15--12----------------)---------------------------------------------------------------
G|--0-----------------0---0-------0----------------------------------------14----X----12--------\----------------16--16\-----16------16--14--13--13\----
D|-----2--------------2---2------------------------------------------------------------------14----\----------------------------------------------------
A|------------0---0-----------------------------------------------------------------------------------\-------------------------------------------------
E|------------------------------------------------------------------------------------------------------------------------------------------------------

~~~~~~~~ ~~~~~~
e|-------12--12--14--15--16-------------16------14--12--12\-----------17--17---19--21--21------------21--21--19--17--17\----------12--12--14--16---16---
B|------------------------------------------------------------------------------------------------------------------------------------------------------
G|--/13------13--14--15--16---------16------16--14--13--13\-------18------18---19--21--21--------21------21--19--18--18\------13------13--14--16---16---
D|------------------------------------------------------------------------------------------------------------------------------------------------------
A|------------------------------------------------------------------------------------------------------------------------------------------------------
E|------------------------------------------------------------------------------------------------------------------------------------------------------

~~~~~~
e|--16---------16---16--14--12--12\--------17------17------17------17\-----15-----15-----15-----15-----15-----------------------------------------------
B|-------------------------------------16------16------16------16-------14-----14-----14-----14-----14--------15-----15-----15-15----15------15---------
G|--16---------16---16--14--13--13\------------------------------------------------------------------------13-----13-----13-------13------13--------14--
D|-----------------------------------------------------------------------------------------------------------------------------------------------13-----
A|------------------------------------------------------------------------------------------------------------------------------------------------------
E|------------------------------------------------------------------------------------------------------------------------------------------------------

~~~~ ~~~
e|--------------------------------------------------------------------------------------------------------12--------------------------------------------
B|-----------------------12------------------------------------------12----------------)------------------12---12-------------------------12---12-------
G|-------14-----14--/16------14-14--12--12-----14-(14)\-------14^16-----14-----14-12-14-------12------------------14-12--12------14---------------14-12-
D|----13-----13-------------------------------------------------------------------------------------14-14-----------------------------------------------
A|------------------------------------------------------------------------------------------------------------------------------------------------------
E|------------------------------------------------------------------------------------------------------------------------------------------------------


e|----------12-----------12-----------12-----------12-------------12------------------------------------------------------------------------------------
B|------)------15-12---)----15-12---)----15^12---)----15-12----12----15^12------------------------------------------------------------------------------
G|----14-------------14-----------14-----------14-----------14-----------------14^12------------------------------------------------------------12-14-12
D|-----------------------------------------------------------------------------------14^12---------------------------------------------12-13-14----14-12
A|-----------------------------------------------------------------------------------------14^12\10----10^12^10-13^13-10--10-10-12/14-------------------
E|--------------------------------------------------------------------------------------------------12--------------------------------------------------

~~~~~ ~~~~~
e|-------------------------------------------12-------)-----------)------|------------|---------)----|---------------|--------)----|--------------------
B|----------------------------------)--12--------15-15----------14)-----14-------)---14-------14)---14----)----)----14------14)---14---)---------------)
G|--14/15-12-14-15-12----12----12-14----------------------------14---------14--14-------------14--------14---14-------------14-------14----14--------12-
D|--------------------14----14--------------------------------------------------------------------------------------------------------------------------
A|------------------------------------------------------------------------------------------------------------------------------------------------------
E|------------------------------------------------------------------------------------------------------------------------------------------------------
hold bend
~~~~~~~~ - - -| ~~~~~~~
E|---------------------------------)----)-----)\)----)------)-----)-------------|-\--)\--)\--)------------)---------------------------------------------
B|---------------------------X---17---17---17------17-----17----17---17--17----17--17--17--17--17-------15---15----------20^17----21^17---21^17----21^17
G|-------14---12---------12(\0)------------------------------------------------------------------------------------------------19------19-------19------
D|--14--------------------------------------------------------------------------------------------------------------------------------------------------
A|------------------------------------------------------------------------------------------------------------------------------------------------------
E|------------------------------------------------------------------------------------------------------------------------------------------------------

lay back _ _ _| _ ~~ _ |
E|-----------------------0-----------------------------------------------------------------------------------------)------------|----)------------------
B|-----21^17----21^17----21^17----21^17----21^17----21^17----21^17----21^17-----17-21^17-----21^17------17----20-20-------20---20--20--(20)--20---17----
G|--19-------19-------19-------19-------19-------19-------19-------19--------19----------19--------19-------------------------------------------------19
D|------------------------------------------------------------------------------------------------------------------------------------------------------
A|------------------------------------------------------------------------------------------------------------------------------------------------------
E|------------------------------------------------------------------------------------------------------------------------------------------------------

Babe,
~~~ ~~~~ ~~~~~~
E|------------------------------------------------------------12----------------------------------------------------0----0---0--0---0-------------------
B|--20---17---------20----17---(17)-------17\-X-X--X------)------15^12----------------------------------------------0----0---0--0---0---------8-------X-
G|----------19------------------------------------------14-------------14^12----------------------------12--(12)\-----------------------------7-------X-
D|---------------------------------------------------------------------------14^12------------------------------------------------------------6-------X-
A|---------------------------------------------------------------------------------14^12^10----12---------------------------------------------7-------X-
E|------------------------------------------------------------------------------------------12----12----0----0------4----4---5--5---7-----0-------------

yeah, gimmie my baby
accel. _ _ _ _ ~~~~~~
E|-----------------------------------------------0--0---0--0---0--0---0----------------------|----------\------------0--0---0--0---0--0---0----0--------
B|--X----8----------------3----------------------0--0---0--0---0--0---0----0-----------------|-----------|-----------0--0---0--0---0--0---0----0------8-
G|--X----7--------0--2^4-----2^4^2^0---------------------------------------------2----X----2-|-----------|--------------------------------------------7-
D|--X----6----------------------------2^0^2^0------------------------------------2----X----2-|-----------|--------------------------------------------6-
A|--X----7---------------------------------------0--0---4--4---5--5---7----0-----0---------X-|-----------|--------------------------------------------7-
E|-----------------------------------------------------------------------------------------3/---------------3--------0--0---4--4---5--5---7----0--------

oh, oh oh my my my my
accel even gliss. let arpeggio ring rake _ _ _~~
E|-----------------------------------------------------------------------------------------------------------0--------0-----------0-----------)---------
B|-------X-------X-----8----(8)/----X\----------------------3-----------3---3--------2^-----------------------------------------------------15---15--15-
G|-------X-------X-----7----(7)/----X\--------------------------2---------------------0-------------------2--------2-----------2-----0---(0)------------
D|-------X-------X-----6----(6)/----X\----------------------------------------------------------2---X-----------------------2-------------0-------------
A|-------X-------X-----7----(7)/----X\----------7\2----2------------2-----------2---------------0---X--0--------0--------0------------------------------
E|------------------------------------------------------------------------------------------------------------------------------------------------------

spoken: Now take it down a little bit 2.People tell me baby, can't be satisfied tryin' to worry me baby,
~~ accel. (w/delay)
E|------------------------------------------------------------------------------------------------------------------------------------------------------
B|--15--12------12---)----------------------------------------------------------------------------------------------------------------------------------
G|-----------14----12------------------12---------------------------------------------------------------------------------------------------------------
D|-----------------------14---12-13-14----14-12--------------12----------------------------------------------------------8(8)\--------------------------
A|------------------------------------------------(12)----13-14-(14)-----------1/2---------------------------------------7(7)\--------------------------
E|-----------------------------------------------------------------------------0(0)--------------------------------------6(6)\--------------------------

but I never end up, get to be myself people worry baby can't keep you satisfied Ah, let me tell you babe ah, you ain't
(w/delay) pick slide (w/delay)
E|------------------------------------------------------------------------------------------------------------------------------------------------------
B|---------------------------------------------------------------------------------------------------------17-\-----------------------------------------
G|---------------------------------------------------------------------------------------------------------------\--------------------------------------
D|--------------------------------------------------------------X(X)\-----------------------------------------------\-----------------------------------
A|--------------------------------------------------------------X(X)\--------------------------------------------------\--------------------------------
E|--------------------------------------------------------------X(X)\-----------------------------------------------------\-----------------------------

nothing but a two bit no good jive I went to sleep last night, I work as hard as I can I bring home my money, you take my money,
~~~~~~~~~~ ~~~~~~~~~~~~~~~~~~~~ ~~~~~~~~~~~~~~~~
E|--------------------------------------------------------------------------------)--------------------------)------------------------------------------
B|-----------------------------------------)------------------------------------15-------------------------15------------------------)------------------
G|--------------------------------/14--(14)---------------------------------------------------------------------------------------/14-------------------
D|------------------------------------------------------------------------------------------------------------------------------------------------------
A|------------------------------------------------------------------------------------------------------------------------------------------------------
E|------------------------------------------------------------------------------------------------------------------------------------------------------

give it to another man I should have quit you baby, oh, such a long time ago, oh I wouldn't be here with all my
~~~~~~~~~~~~~~~~~~~~~~~ (w/delay) rake w/delay
E|--------------------------------------------------------------------------------------------17\-------------------------------------------------------
B|---------------------------------------)----------------------------------------------------17\---\---------------------------------------------------
G|--------------------------/16--------16-----------------------------------------------------------\----\----------------------------------------------
D|-------------------------------------------------------------------------------------------------------\---------14\----------------------------------
A|------------------------------------------------------------------------------------------------------------------X-----------------------------------
E|-----------------------------------------------------------------------------------------------------------------12\----------------------------------

troubles mm, down on this killin' floor Squeeze me babe, til the juice runs down my leg
(simil.)
E|------------------------------------------------------------------------------------------------------------------------------------------------------
B|------------------------------------------------------------------------------------------------------)-\-------------)-------------------------------
G|----------7--7^9---------------------------------7^9^7^9--------------------------------------------14---(14)^12--(12)--------------------------------
D|------------------------------------------------------------------------------------------------------------------------------------------------------
A|------------------------------------------------------------------------------------------------------------------------------------------------------
E|------------------------------------------------------------------------------------------------------------------------------------------------------

The way you squeeze my lemon, I, I'm gonna

E|---------------------------------------------------------------------------------------------------------------------------------------)--------------
B|----------)------------------------------------------------------------------------------------------------------------------12-X-15-15---------------
G|--15^14^12---15^14^12--15^14^12--15^14^12--15^14^12-15^14^12-15^14^12----14----12---------------------------------------------------------------------
D|----------------------------------------------------------------------14----14----14-12---------------------------------------------------------------
A|-----------------------------------------------------------------------------------------14--14\------------------------------------------------------
E|------------------------------------------------------------------------------------------------------------------------------------------------------

fall right out of bed bed bed bed
(bend string behind nut) (simil.)
E|---------------------------------------------------------------------------------------------------------------------- _ _ _ _ _ _ _ ----------
B|----------------15^12^15^12^15^12^15^12^15^12^15^12-------------------------------------9^11------9--------------)----)--------------------\----------
G|-----------------------------------------------------------------------------(9)---11---------11------11--------9---11---11------(11)------11---------
D|------------------------------------------------------------------------------------------------------------------------------------------------------
A|------------------------------------------------------------------------------------------------------------------------------------------------------
E|------------------------------------------------------------------------------------------------------------------------------------------------------

~~~ hold bend ~~~~~~
E|--------------------------------------12-------------------------------------------)----|-------------------------------------------------------------
B|-------------------------------|---12----15---12---)\------------------)-------(14)----14-------|-------------------------------------------|-\-------
G|--9---11-------9---(9)\-------14-----------------14-(14)^12-0-14-----12-----12--14---------14--14---(14)-----14--(14)^12----14------12--14-14---12----
D|-----------11-----------------------------------------------0-----14-----14----------------------------------------------14-----14--------------------
A|------------------------------------------------------------------------------------------------------------------------------------------------------
E|------------------------------------------------------------------------------------------------------------------------------------------------------

~~~~~~~~~ ~~ ~~ ~~~ ~~~
E|--------------------------------------------------------------------------------|\--------------------~------)-\-------------------------------12-----
B|--------------------------------------------------------------------------------|--(11)^9----11------9-----11---(11)^9-11------9----------)-12----15--
G|--12--------------------------9-------9--9------9--9------9--9^11--9------9----/----------11----(11)---11------------------11-----11----14------------
D|-----14-14--(14)\-------9^11-----11---------11--------11--------------11-----11-----------------------------------------------------------------------
A|------------------------------------------------------------------------------------------------------------------------------------------------------
E|------------------------------------------------------------------------------------------------------------------------------------------------------

Hey! Hey! Hey!

E|----------------------------------------------------------)-------------------------------------------------------------------------------------------
B|--12---)\---)------)------------------------------------12-)---------------------)--------)-----)---)-----)-------------------------------------)-----
G|-----14---12-14--12------------12-12------12-12------12-12------14-14-------12-12-------12----12--12----12-------------------------2\11-------14-13^12
D|--------------------14--12-14-----12(14)----(12)--14---------14--------14-----------14-----14--------14-----------------------------------------------
A|-------------------------------------------------------------------------------------------------------------14--14\----------------------------------
E|------------------------------------------------------------------------------------------------------------------------------------------------------

Hey! hey, hey, hey, hey, you baby, baby, baby, baby, baby, baby, baby, baby, baby,
~~~~~~~~~~ (hold bends)
E|---------|\-------------------------------------12-----------------------------------------------------------------------|------|------|------|------|
B|---------|--\-------------)\-------------)--12------15----)\-----------------------------------------------------------)14---)-14---)-14---)-14---)-14
G|--------14---(14)^12----14--(14)^12----14---------------14--(14)^12-14-------12^14-----------------------------------14----14-----14-----14-----14----
D|------------------------------------14----------------------------------14----------------------------------------------------------------------------
A|------------------------------------------------------------------------------------------------------------------------------------------------------
E|------------------------------------------------------------------------------------------------------------------------------------------------------

baby hey, hey, hey hey hey
~~~~~~~ ~~~~ ~~~~~
E|----|-------------------------------------------------------------------------------------------------------------------------------------------------
B|---14----14--12--15^12---)\----------------)-----------|\--------------------)-------(----------------|\---------------)-\--------------)-------------
G|-----14----------------14--(14)^12----14^12-----------14-(14)^12-----------14---------(14)^12--------14-(14)^12-----14----(14)^12-----14--------------
D|-----------------------------------14-----------------------------------------------------------------------------------------------------------------
A|------------------------------------------------------------------------------------------------------------------------------------------------------
E|------------------------------------------------------------------------------------------------------------------------------------------------------

tremlo~~~~~~~~~~~~~~~~~~~~~~~~~~~~~ ~~~~~~
E|-----------------------------------------16--16\------16--16--16--14--12---12\------12--12--12--14--16------16-----------16--16--16---14--12--12\-----
B|-----------------------------------------15--15\------15--15--15--14--12---12\------12--12--12------15--15--15-----------15--15--15---14--12--12\-----
G|--9^7------------------------------------16--16\------16--16--16--14--13---13\------13--13--13--14--16--16--16--(16)-----16--16--16---14--13--13\-----
D|------------------------------------------------------------------------------------------------------------------------------------------------------
A|------------------------------------------------------------------------------------------------------------------------------------------------------
E|------------------------------------------------------------------------------------------------------------------------------------------------------

w/pick & finger ~~~~~~~ accel. w/pick &
E|--(17)-----------------21--------------------21------21--19--17--17\-------12------14--16------------16--16--16---14--12---12------------------17-----
B|---17--17--17-------------------------------------------------------------------------------------------------------------------2/16-------16------16-
G|---18--18--18--19--21--21----------------21------21------19--18--18\--/13------13--14--16--(16)------16--16--16---14--13---13-------------------------
D|------------------------------------------------------------------------------------------------------------------------------------------------------
A|------------------------------------------------------------------------------------------------------------------------------------------------------
E|------------------------------------------------------------------------------------------------------------------------------------------------------

finger Rake
E|--17------17------17------17------15------15------15------15------15----------------------------------------------------------------------12^---------
B|------16------16------16------14------14------14------14------14-------------15------15------15------15------15-----------------------------12^-------
G|----------------------------------------------------------------------13---------13------13------13------13----------14------14--14--14-------12--X--X
D|-----------------------------------------------------------------------------------------------------------------13------13------13--13---------------
A|------------------------------------------------------------------------------------------------------------------------------------------------------
E|------------------------------------------------------------------------------------------------------------------------------------------------------

~~~~~~ rake rake rake rake p.m. accel.
E|------------------------------12^---------------12----------------------------------------------------------------15^12--15^12--15^12--15^12--15^12---
B|---|-\---|--------12^-----------12^-------------12^-----12-----)--12-------12^----------)---12^-----------(14)---------12-----12-----12-----12-----12-
G|--14----12----------12^-----------12---12^0-------12^-----14-12-----14^12----12^---14-12------X^--14-12-----------------------------------------------
D|----------------------14----------------------------14-------------------------14--------------X------------------------------------------------------
A|------------------------------------------------------------------------------------------------------------------------------------------------------
E|------------------------------------------------------------------------------------------------------------------------------------------------------

I'm gonna leave my
~~ ~~~~
e|--15^12---15-12----15-12----15-12-------12--12--------------------------------------------------------------------)----12-----------------------------
b|-------12-------12-------12-------12-12-12-(12)---------14^12--15^12---------14^12-----15^12-----15^14------15--15-------15-12--|---------------------
g|-------------------------------------------------14\12---------------12------------12--------12--------12----------------------14--14^13-14-----------
d|------------------------------------------------------------------------------------------------------------------------------------------------------
a|------------------------------------------------------------------------------------------------------------------------------------------------------
E|------------------------------------------------------------------------------------------------------------------------------------------------------

children down on this killin' floor
w/delay
e|---------------------------------------| That's it.. the whole song
b|---------------------------------12\9--| in it's 6:49 glory. If there is
g|---------------------------------12\9--| any questions about lyrics, riffs
d|---------------------------------12\9--| or plain old Zep trivia, e-mail
a|---------------------------------------| me at zil@masterpiece.com.
E|---------------------------------------|
Get this song at amazon.com      Ebay     Ringtones Ringtones  


Learn to play: Songwriting, Piano, Harmonica, Guitar
Also available at Muzikum: Led Zeppelin - The lemon song lyrics

Related Led Zeppelin Tabs

Stairway To Heaven 100% Correct tabs
Your Time Is Gonna Come Bass tabs
Dazed And Confused tabs
Stairway To Heaven (acoustic) tabs
Wah Wah Song tabs
Candy Store Rock tabs
Ramble On tabs
Good Times Bad Times tabs
Since I tabs
Dazed & Confused tabs
Four Sticks Bass tabs
Achilles Last Stand...better That The Mastas tabs
Stairway Solo tabs
Nobodys Fault But Mine tabs
When The Levee Breaks tabs
Prison Blues tabs
Communication Breakdown tabs
Babe Im Gonna Leave You Remasters tabs
What Is And What Should Never Be tabs
Yallah tabs


Guitar Tabs









All tabs are property and copyright of their owners. All tabs provided for educational purposes only. Privacy Policy, DMCA