Led Zeppelin

The Girl I Love Bass Tabs



More from Led Zeppelin

Led Zeppelin Tabs
Led Zeppelin Chords
Led Zeppelin Bass
Led Zeppelin Lyrics




verse
|----------------------|-------------|
|-----7-5---5--5---5-7-|-------------|
|---------7------7-----|-------------|
|-5-5------------------|-5-5-3-0-3-5-|

verse 2
|-----7-5---5--5---5-7-|-------------|
|---------7------7-----|-------------|
|-5-5------------------|-5-5-3-0-3-5-|
|----------------------|-------------|

chorus
|---------------------------------|
|---------------------------------|
|-7-7-7-7-7-7-7--5-5-5-5--3-3-3-3-|
|---------------------------------|



Get this song at amazon.com      Ebay     Ringtones Ringtones  


Learn to play: Songwriting, Piano, Harmonica, Guitar
Also available at Muzikum: Led Zeppelin - The Girl I Love lyrics

Related Led Zeppelin Bass Tabs

Royal Orleans bass
Immigrant Song bass
What Is And Never Should Be bass
Nobodys Fault But Mine bass
Whole Lotta Love Bass Tabs bass
Im Gonna Crawl bass
Dazed And Confused (correct) bass
Misty Mountain Hop bass
Hart Breaker bass
Communitcation Breakdown bass
Moby Dick bass
Hey Hey What Can I Do bass
Out On The Tiles bass
Achelles Last Stand bass
Rock & Roll bass
Heartbreaker Complete bass
Gallows Pole 99 9% Correct bass
Lemon Song Bass Solo bass
Friends bass
Crunge bass


Guitar Tabs









All tabs are property and copyright of their owners. All tabs provided for educational purposes only. Privacy Policy, DMCA