Led Zeppelin

The Girl I Love She Got Long Black Wavy Hair Tabs



More from Led Zeppelin

Led Zeppelin Tabs
Led Zeppelin Chords
Led Zeppelin Bass
Led Zeppelin Lyrics



Song: THE GIRL I LOVE SHE GOT LONG BLACK WAVY HAIR

Artist: Led Zepelin

Album: B.B.C. SESSIONS (1997)

Tabbed By: INDIE NATION







Words and Music by: Jimmy Page, Robert Plant, John Paul Jones & John Bonham



Gtr I (E A D G B E) - 'Jimmy Page overdrive electric'









Intro:



Q=92

4/4

Gtr I

~~~~~~ ~~~~~~

e e S S S S +E. S S E. e E S S S S H e E S S S S +E. S S E.

||-------------------------|-------------------||------------------------|

||o------------------------|------------------o||------------------------|

||-------------------------|-------------------||-----7p5---5-(5)---5-7\-|

||------7p5---5-(5)---5-7\-|-------------------||-0-0-----7-------7------|

||o-0-0-----7-------7------|-0-0-------0------o||------------------------|

||-------------------------|-----3-0-3---------||------------------------|

|-Riff A end Riff A-|



~~~~~~ ~~~~~~

E S S S S S S +S +S E E a E e e S S S S +E. S S E. e e S S S S H

|---------------------------------|------------------------|------------------|

|---------------------------------|------------------------|------------------|

|-------7-5---5-(5)-(5)s12s1-7s12-|------------------------|------------------|

|-0---x-----7---------------------|-----7p5---5-(5)---5-7\-|-----7p5---5------|

|---------------------------------|-0-0-----7-------7------|-0-0-----7--------|

|---------------------------------|------------------------|------------------|





Q +S S S S Q. E Q.. S +Q Q

|---------------------|-----------------|

|---------------------|-----------------|

|---------------------|-----------------|

|-9--(9)-9-9-9-9----9-|-7-----5-(5)-----|

|-7--(7)-7-7-7-7----7-|-5-----3-(3)--5--|

|-0--(0)-0-0-0-0----0-|--------------3--|





Riff A









Verse 1:



~~~~~~ ~~~~~~

e e S S S S +E. S S E. e E S S S S H e E S S S S +E. S S E.

||-------------------------|-------------------||-------------------------|

||o------------------------|------------------o||-------------------------|

||-------------------------|-------------------||-----7p5---5-(5)---5-7\--|

||------7p5---5-(5)---5-7\-|-------------------||-0-0-----7-------7-------|

||o-0-0-----7-------7------|-0-0-------0------o||-------------------------|

||-------------------------|-----3-0-3---------||-------------------------|





~~~~~~

e E S S S S +S E S +Q e e S S S S +E. S S E. e E S S S S Q E. S

|-----------------------------|------------------------|----------------------|

|-----------------------------|------------------------|----------------------|

|-----------------------------|------------------------|----------------------|

|-0-0-------0-(0)-------------|-----7p5---5-(5)---5-7\-|-------------------9--|

|-----3-0-3-------2s17-(17)\--|-0-0-----7-------7------|-0-0-------0-------7--|

|-----------------------------|------------------------|-----3-0-3---------0--|





H. S E S Q S S S S +Q Q

|---------------|--------------------|

|---------------|--------------------|

|---------------|--------------------|

|-9-------9-9-7-|-7--x-x-x-5-(5)-----|

|-7-------7-7-5-|-5--x-x-x-3-(3)--5--|

|-0-------0-0---|-----------------3--|





Riff A









Verse 2:



repeat Verse 1





~~~~~~

e e S S S S +E. S S E. E a E S S E S a +E S a +S S S a +S

|------------------------|-------------------------5-------------5-----------||

|------------------------|-------------------------5-----------5-------------||

|------------------------|---------------8b9==(8)r---8b9==(8)r-----8b9==(8)r-||

|-----7p5---5-(5)---5-7\-|---------------------------------------------------||

|-0-0-----7-------7------|-0-------------------------------------------------||

|------------------------|---3s5-5-3-x---------------------------------------||









Guitar Solo:

~

|-3--|

S S a +S S S S +S S S E S S a +S S S S

|-5-5-----------5-5---------------------------------5-|

|-5-5-----------5-5-------------------------------5---|

|-----8b9==(8)r-----8b9r(8)-5-----5---5b7==(5)r-7-----|

|-----------------------------7-7---7-----------------|

|-----------------------------------------------------|

|-----------------------------------------------------|





~~~ ~

|----6----| |---6---|

S a +E. +S S S S S S S S S S S S S S E

|-----------------------------------------------|

|-8-8b10==(8)-(8)r---5---5----------------------|

|------------------8---8---8-7-5-----7---5-6----|

|--------------------------------7-7---7-----5--|

|-----------------------------------------------|

|-----------------------------------------------|





~~~

|--3--|

+E. S S S S a +S S S S S S E S S

|-----------------------------------------------------|

|---------10-12---12b14==(12)r---12-10----12-10-12-10-|

|-----/11------------------------------11-------------|

|-(5)-------------------------------------------------|

|-----------------------------------------------------|

|-----------------------------------------------------|





~~

a +E E a E S S a +S S S S S S S S

|-12b14==(12)r--x--12--------------------------------------------|

|---------------x-----10----10-12b14==(12)r-12-10----12----10-12-|

|--------------(0)-------11-----------------------11----11-------|

|----------------------------------------------------------------|

|----------------------------------------------------------------|

|----------------------------------------------------------------|





~~~~~~~~

S S E +Q S S S S a +E S S

|-----------------------5-7b9==(7)r---7-|

|-10-12-------------5-7-----------------|

|-------11-(11)\------------------------|

|---------------------------------------|

|---------------------------------------|

|---------------------------------------|





~~

|---3----| |--3---|

S S S S E. S a +S S S S T +T +S +S S S S

|-5---7-5------8b10==(8)r---5----------------------------|

|---7-----7--5----------------5--------------------5-----|

|-------------------------------7b9r(7)b9==(7)r(7)---5---|

|------------------------------------------------------7-|

|--------------------------------------------------------|

|--------------------------------------------------------|





~~~~~~

|---6---| |-----6-----|

S S S S E +E. S S a S S S S S S a S S S

|-----------------------------------------|

|-------------------------------------5-5-|

|-7---5-6-------------------2---2-1s6-----|

|---7-----5-(5)---0-------3---3-----------|

|---------------0---3s4-------------------|

|-----------------------------------------|





|-3--|

S a E. S S S S S S S S S S S S S

|-5-------8-9-10p9-10--10b12----10--8----10----8-|

|---8s10------------------------------10----10---|

|---------------------(10)b11---(0)--------------|

|------------------------------------------------|

|------------------------------------------------|

|------------------------------------------------|





~~~~~~~

S S E +E a S S a +S S S S E S S

|-10-0-----------------------------------------------|

|-10---------------10-12b14==(12)r-10-12----------10-|

|----9-9-(9)\-9s11-----------------------11-11-11----|

|----------------------------------------------------|

|----------------------------------------------------|

|----------------------------------------------------|





|---3---| |--3--| |------3------|

a +E E e S S S e E E a +E S S E

|-12b14==(12)r-12-11-10----10--------------------------------|

|-----------------------13----13-10----12b14==(12)r-12-10----|

|-----------------------------------11--------------------11-|

|------------------------------------------------------------|

|------------------------------------------------------------|

|------------------------------------------------------------|





|--3--| |--3--|

T T S S S +E +E a +S S S S T T S T T S T T T T

|---------------------------------------5-----------------------|

|-12p10----12-10-(10)-(10)\-----------5---8-5h8-5---5-----------|

|-------11------------------7b9==(7)r-------------8---8-8p5-7p5-|

|---------------------------------------------------------------|

|---------------------------------------------------------------|

|---------------------------------------------------------------|





|-3-| |-3-| |-3-|

T T T T S S S S S S S S S S S S S T T S S S

|----------------------------------------------||

|----------------------------------------------||

|----------------------------------------------||

|-5h7-7p5-------5h7p5---------------------5----||

|---------6-7-7-------0-7-3h5p3---3-3-5s7---7--||

|-------------------------------5--------------||











Verse 3:



Riff A x4





E Q E +E E E E E E S E S +S E S E E

|------------------|---------2-(2)----------|

|------------------|---------------1-1-1----|

|---1--2-(2)-4-2-1-|-2---0h2-------------2--|

|---2--0-(0)-------|-0---0------------------|

|---2--4-(4)-5-4-2-|---0--------------------|

|-0----------------|------------------------|





Riff A











Outro:



|-3--|

E a +S S S a +S S S a +S S S a +S +S S S S S

|---------------5-------------5-------------5-----------------------||

|-------------5-------------5-------------5-------------------------||

|---7b9==(7)r-----7b9==(7)r-----7b9==(7)r-----7b9==(7)r(7)p5---7----||

|------------------------------------------------------------7---7--||

|-------------------------------------------------------------------||

|-------------------------------------------------------------------||





~

S S Q E S E S S S S T T

|-----------------------------------|

|------------/14-14-/13-14-14-13s14-|

|-5-6--------/12-12-/11-12-12-11s12-|

|-----5------/14-14-/13-14-14-13s14-|

|-----------------------------------|

|-----------------------------------|





S S T T S S T T S S T T S S S S S S S

|----------------------------------------------------------|

|-14-14-13s14-14-14-13s14-14-14-13s14-14-14-14-14-14---13--|

|-12-12-11s12-12-12-11s12-12-12-11s12-12-12-12-12-12-0-12--|

|-14-14-13s14-14-14-13s14-14-14-12s14-14-14-14-14-14-------|

|----------------------------------------------------------|

|----------------------------------------------------------|





S S S S S S S S S S S S a +E a +E



|-14-12----14-12----14-12----14-12-----------------12b12.5==(12)r-|

|----12-13-------13-------13-------13-13b14==(13)r-13b14====(13)r-|

|-----------------------------------------------------------------|

|-----------------------------------------------------------------|

|-----------------------------------------------------------------|

|-----------------------------------------------------------------|





a +E E Q S S a +S S S S a +E

|-12b12.5==(12)r------------------------------------------------|

|-13b14====(13)r-------------15b16==(15)r-15-13-15-15b16==(15)r-|

|----------------14\------14------------------------------------|

|---------------------------------------------------------------|

|---------------------------------------------------------------|

|---------------------------------------------------------------|





~~~~~ ~~~~~~~~~~~~

a +S +S a +Q E a S S S S S S S S

|---------------------------------------------15--15-15-15-15-15-15-15-|

|-15b16==(15)-([15])r-15b17==(15)r----15b17==(15)-15-15-15-15-15-15-15-|

|----------------------------------------------------------------------|

|----------------------------------------------------------------------|

|----------------------------------------------------------------------|

|----------------------------------------------------------------------|





~~~~~~~~~~~~~~~~~~~~~~~~~

S S S S S S S S S S S S +Q

|-15-15-15-15-15-15-15-15-15------15-15-15-(15)\---|

|-15-15-15-15-15-15-15-15-15------15-15-15-(15)r\--|

|-------------------------15pb16==15-15-15-(15)r\--|

|--------------------------------------------------|

|--------------------------------------------------|

|--------------------------------------------------|





Q. a E S S S T T S S T T S

|------------------------------|

|------------------------------|

|------------------------------|

|----------5-5-7-5---5---5---5-|

|------5h7---------7---7---7---|

|-0----------------------------|





a S S S T T S S S T T S S T T S T T T T T T S

|------------------------------------------------*|

|---------------------------5---5-8p5---5--------*|

|-----------------5---5-7-7---7-------7---7-5h7--*|

|---------7-7-5-7---7----------------------------*|

|-5s7-7-7----------------------------------------*|

|------------------------------------------------*|



Added by tabs-database.com and our distinguished partners
Get this song at amazon.com      Ebay     Ringtones Ringtones  


Learn to play: Songwriting, Piano, Harmonica, Guitar
Also available at Muzikum: Led Zeppelin - The Girl I Love She Got Long Black Wavy Hair lyrics

Related Led Zeppelin Tabs

Poor Tom Bass tabs
The Lemon Song (intro) tabs
No Quarter(100%) tabs
Living Loving Maid tabs
No Quarter (perfecto) tabs
As Long As I Have You Live tabs
Hots On For Nowhere tabs
Ocean, The tabs
Crunge Bass tabs
Black Country Woman Intro tabs
Traveling Riverside Blues tabs
Since I've Been Loving You tabs
Dyer Maker Bass tabs
I Cant Quit You tabs
Dancing Days tabs
All My Love Bass tabs
Kashmir tabs
Rain Song Intro tabs
Achilles Last Stand tabs
White Summer tabs


Guitar Tabs









All tabs are property and copyright of their owners. All tabs provided for educational purposes only. Privacy Policy, DMCA