Led Zeppelin

The Girl I Love She Got Long Black Wavu Hair Bass Tabs



More from Led Zeppelin

Led Zeppelin Tabs
Led Zeppelin Chords
Led Zeppelin Bass
Led Zeppelin Lyrics



First Riff

G -------------------------------------------
D -------7p5---5--5h7------------------------
A -----------7---7---------------------------
E ---5-5---------------5-5--3p0-3-5----------

Second Riff

G -------7p5---5---5h7-----------------------
D -----------7---7---------------------------
A ---5-5----------------5-5--3p0-3-5---------
E -------------------------------------------

Chorus

G -----9---10------------7---8------------
D -------7-----------------5---------------
A -7-7---------7-7/5-5-5--------5----------
E ----------------------------------5-7-5-7

Layout:

First Riff X1
Second Riff X1
First Riff X1
Chorus X1
First Riff X3
Second Riff X1
First Riff X1
Chorus X1
First Riff X3 Legend: h = hammer-on
Second Riff X1 P = pull-off
First Riff X1 / = slide to..
Chorus X1
First Riff X3
Second Riff X1
First Riff X1
Chorus X1
First Riff X3
Second Riff X1
First Riff X1
Chorus X1
First Riff X3
Second Riff X1
First Riff X1



Get this song at amazon.com      Ebay     Ringtones Ringtones  


Learn to play: Songwriting, Piano, Harmonica, Guitar
More Led Zeppelin lyrics available at Muzikum

Related Led Zeppelin Bass Tabs

Whole Lotta Love bass
Darlene bass
The Ocean-perfect bass
Since Ive Been Loving You bass
Lemon Song Bass Solo bass
Out On The Tiles (complete) bass
Dazed And Confused (correct) bass
Bron Y Aur Stomp bass
No Quater bass
Black Country Woman bass
Communitcation Breakdown bass
What Is And What Should Never Be (complete) bass
You Shook Me bass
Black Dog bass
Poor Tom bass
Rock N Roll bass
Dazed And Confuzed bass
Rock And Roll bass
Im Gonna Crawl bass
Dryer Maker bass


Guitar Tabs









All tabs are property and copyright of their owners. All tabs provided for educational purposes only. Privacy Policy, DMCA