Led Zeppelin

Thats The Way Live Tabs



More from Led Zeppelin

Led Zeppelin Tabs
Led Zeppelin Chords
Led Zeppelin Bass
Led Zeppelin Lyrics



Led Zeppelin
Thats The Way
Tabbed By Taylor Gilmore, Carlsbad CA

Beautiful song, enjoy

Intro (Live) G G D G B D
-/7-7 -7/8-8 8/10-10-----------5-
-/7-7 -7/8-8 8/10-10-----------5-
-/7-7 -7/8-8 8/10-10-----------5-
-/7-7 -7/8-8 8/10-10-----------5-
-/7-7 -7/8-8 8/10-10-----------5-
-/7-7 -7/8-8 8/10-10-----------5-
8 strums 8 strums 8 strums 5 strums

Main Riff
-0-0-0-0-0-0-4-4-4-4-4-0-0-2-0-0-2-0-0
-0-0-0-1-3-3-0-0-0-3-3-0-0-1-0-1-1-0-0
-0-0-0-0-0-0-0-0-0-0-0-0-0-0-0-0-0-0-0
-0-0-0-2-4-4-0-0-0-4-4-0-0-2-0-2-2-0-0
-0-0-0-0-0-0-0-0-0-0-0-0-0-0-0-0-0-0-0
-0-0-0-0-0-0-0-0-0-0-0-0-0-0-0-0-0-0-0

Main Riff Variation 1
-0-0-0-0-0-0-4-4-4-4-4-1/5-5-5-5-5-5--5-5-5
-0-0-0-1-3-3-0-0-0-3-3-1/5-5-5-5-5-6p-5-5-5
-0-0-0-0-0-0-0-0-0-0-0-1/5-5-5-5-5-5--5-5-5
-0-0-0-2-4-4-0-0-0-4-4-1/5-5-5-5-5-7p-5-5-5
-0-0-0-0-0-0-0-0-0-0-0-1/5-5-5-5-5-5--5-5-5
-0-0-0-0-0-0-0-0-0-0-0-1/5-5-5-5-5-5--5-5-5
Main Riff Variation 2
-0-0-0-0-0-0-4-4-4-4-4------------
-0-0-0-1-3-3-0-0-0-3-3------------
-0-0-0-0-0-0-0-0-0-0-0-3-2-0------
-0-0-0-2-4-4-0-0-0-4-4------------
-0-0-0-0-0-0-0-0-0-0-0-------3-2-0
-0-0-0-0-0-0-0-0-0-0-0------------

Chorus
-3-
-3-
-3-
-3-
-0-
-0-
16 strums

-0-0-0-0-0-0-0-0-0-
-7-7-7-7-7-7-5-6-7-
-0-0-0-0-0-0-0-0-0-
-7-7-7-7-7-7-5-6-7-
-7-7-7-7-7-7-5-6-7-
-0-0-0-0-0-0-0-0-0-

-3-3-3-3-3-3-3--3-3-3-3-3-0-0-0
-1-1-1-1-1-1-1--1-1-1-1-1-1-1-1
-0-0-0-0-0-0-0--0-0-0-0-0-0-0-0
-3-3-3-3-3-3-3--2-2-2-2-2-2-2-2
-0-0-0-0-0-0-0--0-0-0-0-0-0-0-0
-0-0-0-0-0-0-0--0-0-0-0-0-0-0-0

Instrumental Ending
A.
-0-0-0-0-0-0-0-0-0-0-0-0-0-0-0-0-0-0-0
-0-0-0-1-1-1-3-3-3-5-5-5-7-7-7-7-7-7-7
-0-0-0-0-0-0-0-0-0-0-0-0-0-0-0-0-0-0-0
-0-0-0-2-2-2-4-4-4-5-5-5-7-7-7-7-7-7-7 1x
-0-0-0-0-0-0-0-0-0-0-0-0-7-7-7-7-7-7-7
-0-0-0-0-0-0-0-0-0-0-0-0-0-0-0-0-0-0-0
B.
0--0--0-0-0-0 -0-
8-10-12-7-8-8 -7-
0--0--0-0-0-0 -0-
9-10-12-7-9-9 3x then -7- 8x
0--0--0-7-0-0 -7-
0--0--0-0-0-0 -0-


Get this song at amazon.com      Ebay     Ringtones Ringtones  


Learn to play: Songwriting, Piano, Harmonica, Guitar
More Led Zeppelin lyrics available at Muzikum

Related Led Zeppelin Tabs

Led Zep I tabs
Over The Hills & Far Away tabs
Friends tabs
Carouselambra tabs
What Is And What Should Never Be Bass tabs
Achilles Last Stand tabs
Pat S Delight tabs
The Rover Solo tabs
In The Evening Bass tabs
The Girl I Love tabs
Dyer Maker tabs
Remasters Disc 2 tabs
Kashmir (the Right Way!) tabs
Rock N Roll tabs
Black Dog2 tabs
Immigrant Song tabs
Thank You tabs
The Lemon Song (intro) tabs
As Long As I Have You tabs
Bron-yr-aur tabs


Guitar Tabs









All tabs are property and copyright of their owners. All tabs provided for educational purposes only. Privacy Policy, DMCA