Led Zeppelin

Ten Years Gone Bass Tabs



More from Led Zeppelin

Led Zeppelin Tabs
Led Zeppelin Chords
Led Zeppelin Bass
Led Zeppelin Lyrics

Date: Tue, 18 Jun 2002 22:24:36 +0300 (EEST)
From: Ryan William Klein 
From: =?ISO-8859-1?Q?jan_bj=F6rklund?= 
Subject: l/led_zeppelin/ten_years_gone.btab

l/led_zeppelin/Ten_Years_Gone.btab

TablEdited by Jan Bjorklund   
You are welcome to request for tabs!
Fingering and positions as suggested by TablEdit, please use common sense.


TablEdited by Jan Bjorklund
Tuning : E A D G 	Time Signature: 4/4

  |               |               |               |                 
||-----------------------------------------------------------------|
|*-----------------------------------------------------------------|
|*--------------------------------0-------0-----------0------------|
||------------------------------------------------4-------1--------|

  |               |               |               |                 
|------------------------------------------------------------------|
|------------------------------------------------------------------|
|------------------------------------------------------------------|
|------------------------------------------------------------------|

  |               |               |               |                 
|------------------------------------------------------------------|
|------------------------------------------------------------------|
|---------------------------------0-------0-----------0------------|
|-------------------------------------------------4-------1--------|

  |               |               |               |                 
|------------------------------------------------------------------|
|------------------------------------------------------------------|
|------------------------------------------------------------------|
|------------------------------------------------------------------|

  |               |               |               |                 
|------------------------------------------------------------------|
|------------------------------------------------------------------|
|---------------------------------0-------0-----------0------------|
|-------------------------------------------------4-------1--------|

  |               |               |               |                 
|------------------------------------------------------------------|
|------------------------------------------------------------------|
|------------------------------------------------------------------|
|------------------------------------------------------------------|

  |               |               |               |                 
|-----------------------------------------------------------------||
|---------------------------------4---------------4---------------||
|-0-----------------------0---------------------------------------||
|-----------------------------------------------------------------||

>1|               |               |               |                 
|------------------------------------------------------------------|
|-2-------2---2---2---2---2-------0-------0---0---0-----------0----|
|------------------------------------------------------------------|
|------------------------------------------------------------------|

  |               |               |               |                 
|------------------------------------------------------------------|
|-----------------------------------------------------0---3--------|
|-3---------------------------------------0---3--------------------|
|---------------------------------0---1----------------------------|

  |               |               |               |                 
|------------------------------------------------------------------|
|-2----------------------------------------------------------------|
|---------0-------0---0---0---------------0-------0---0---0--------|
|------------------------------------------------------------------|

  |               |               |               |                 
|---------------------------------------------------------2--------|
|-----------------------------------------------------2------------|
|---------0-------0---0---0---------------0-------4----------------|
|------------------------------------------------------------------|

  |               |               |               |                 
|------------------------------------------------------------------|
|-------------------------------------2----------------------------|
|---------0-------0-------0---------------0-------0---0---0--------|
|------------------------------------------------------------------|

  |               |               |               |                 
|---------------------------------------------------------2--------|
|-----------------------------------------------------2------------|
|---------0-------0---0---0---------------0-------3----------------|
|------------------------------------------------------------------|

  |               |               |               |                 
|------------------------------------------------------------------|
|------------------------------------------------------------------|
|---------0-------0-------0---0-----------0---------------0--------|
|-------------------------------------------------2---2------------|

  |               |               |               |                 
|---------------------------------------------------------2--------|
|-----------------------------------------------------2------------|
|---------0-------0---0---0---------------0-------4----------------|
|------------------------------------------------------------------|

  |               |               |               |                 
|------------------------------------------------------------------|
|------------------------------------------------------------------|
|---------0-------0---0---0---------------0-------0---0---0--------|
|------------------------------------------------------------------|

  |               |               |               |                 
|---------------------------------------------------------2--------|
|-----------------------------------------------------2------------|
|---------0-------0---0---0---------------0-------4----------------|
|------------------------------------------------------------------|

  |               |               |               |                 
|------------------------------------------------------------------|
|------------------------------------------------------------------|
|-0-------------------------------0-------0-----------0------------|
|-------------------------------------------------4-------1--------|

  |               |               |               |                 
|-----------------------------------------------------------------||
|-----------------------------------------------------------------*|
|-----------------------------------------------------------------*|
|-----------------------------------------------------------------||

>2|               |               |               |                 
|------------------------------------------------------------------|
|-2-------2---2---2---2---2-------0-------0---0---0-----------0----|
|------------------------------------------------------------------|
|------------------------------------------------------------------|

  |               |               |               |                 
|------------------------------------------------------------------|
|------------------------------------------------------------------|
|---------------------------------0-------0-----------0------------|
|-------------------------------------------------4-------1--------|

  |               |               |               |                 
|------------------------------------------------------------------|
|------------------------------------------------------------------|
|------------------------------------------------------------------|
|------------------------------------------------------------------|

  |               |               |               |                 
|------------------------------------------------------------------|
|-2-------2---2---2---2---2-------0-------0---0---0-----------0----|
|------------------------------------------------------------------|
|------------------------------------------------------------------|

  |               |               |               |                 
|------------------------------------------------------------------|
|------------------------------------------------------------------|
|-3----------------------------------------------------------------|
|------------------------------------------------------------------|

  |               |               |               |                 
|------------------------------------------------------------------|
|-0-----------------------0-----------0---0---------------0---0----|
|------------------------------------------------------------------|
|------------------------------------------------------------------|

  |               |               |               |                 
|-0-----------------------0----------------------------------------|
|-------------0-------------------------------------------0---1----|
|------------------------------------------------------------------|
|-----------------3-----------------------3-------3----------------|

  |               |               |               |                 
|------------------------------------------------------------------|
|-2-----------2---2-------2---2-------2-----------2----------------|
|-----------------------------------------3------------------------|
|---------------------------------------------------------3--------|

  |               |               |               |                 
|------------------------------------------------------------------|
|---------0-------0-------0-----------------------0---0---0---0----|
|------------------------------------------------------------------|
|------------------------------------------------------------------|

  |               |               |               |                 
|------------------------------------------------------------------|
|-0-----------------------0---------------0---0---0-------2---4----|
|------------------------------------------------------------------|
|------------------------------------------------------------------|

  |               |               |               |                 
|-0-----------------------0---------------0---0--------------------|
|-------------0---0---0-------------------------------0------------|
|-------------------------------------------------------------2----|
|---------------------------------------------------------3--------|

  |               |               |               |                 
|------------------------------------------------------------------|
|-2-----------2---2---2---2---2-------0-----------1----------------|
|-----------------------------------------2------------------------|
|------------------------------------------------------------------|

  |               |               |               |                 
|------------------------------------------------------------------|
|-0---------------0-----------0---0-----------0---0-----------2----|
|---------------------------------------------------------0--------|
|------------------------------------------------------------------|

  |               |               |               |                 
|------------------------------------------------------------------|
|-0-----------------------0---------------0---------------0--------|
|-------------------------------------------------0---2------------|
|------------------------------------------------------------------|

  |               |               |               |                 
|-------------------------0---------------0------------------------|
|-------------0---0---0---------------------------------------0----|
|-----------------------------------------------------2---2--------|
|-3----------------------------------------------------------------|

  |               |               |               |                 
|------------------------------------------------------------------|
|-2-------2---2---2-----------2-------2---2---------------0--------|
|-------------------------2----------------------------------------|
|------------------------------------------------------------------|

  |               |               |               |                 
|------------------------------------------------------------------|
|---------0---------------0-------0--------------------------------|
|------------------------------------------------------------------|
|------------------------------------------------------------------|

  |               |               |               |                 
|------------------------------------------------------------------|
|-0-------0-------0-------0---------------0-------0-------2---4----|
|------------------------------------------------------------------|
|------------------------------------------------------------------|

  |               |               |               |                 
|-0----------------------------------------------------------------|
|-------------0---0-------0---------------------------0-------0----|
|---------------------------------------------------------2--------|
|-----------------------------3-----------3------------------------|

  |               |               |               |                 
|------------------------------------------------------------------|
|-2-------2---2---2-------2---2-------2-----------2-------0--------|
|-----------------------------------------2------------------------|
|------------------------------------------------------------------|

  |               |               |               |                 
|------------------------------------------------------------------|
|---------0---------------0-------0--------------------------------|
|---------------------------------------------0---0---2---2---0----|
|-----------------------------------------3------------------------|

  |               |               |               |                 
|---------------------------------------------------------7--------|
|-------------------------------------5---5-------5----------------|
|------------------------------------------------------------------|
|-5---3---3---3---3-----------3------------------------------------|

  |               |               |               |                 
|------------------------------------------------------------------|
|------------------------------------------------------------------|
|------------------------------------------------------------------|
|-----------------------------------------3---5---5---7---7---5----|

  |               |               |               |                 
|---------------------------------------------------------7--------|
|-------------------------------------5---5-------5----------------|
|------------------------------------------------------------------|
|-5---3---3---3---3-----------3------------------------------------|

  |               |               |               |                 
|------------------------------------------------------------------|
|------------------------------------------------------------------|
|------------------------------------------------------------------|
|-----------------------------------------3---5---5---7---7---5----|

  |               |               |               |                 
|---------------------------------------------------------7--------|
|-------------------------------------5-----------5----------------|
|------------------------------------------------------------------|
|-5---3---3---3---3-----------3---------------3--------------------|

  |               |               |               |                 
|------------------------------------------------------------------|
|------------------------------------------------------------------|
|---------5--------------------------------------------------------|
|-----------------------------------------3---5---5---7---7---5----|

  |               |               |               |                 
|------------------------------------------------------------------|
|------------------------------------------------------------------|
|-0-------------------------------------------------------0--------|
|-----3---3---3---3-----------3-------3-------3---3----------------|

  |               |               |               |                 
|---------2---------------------------2---2---2--------------------|
|---------------------------------2---------------2-------0--------|
|-0-----------------------0---------------------------0------------|
|------------------------------------------------------------------|

  |               |               |               |                 
|---------------------------------2-----------------------0--------|
|-------------------------0---------------0------------------------|
|------------------------------------------------------------------|
|------------------------------------------------------------------|

  |               |               |               |                 
|---------------------------------7-------7---7--------------------|
|-------------------------5---5-------------------5----------------|
|-----------------------------------------------------5------------|
|---------------------------------------------------------8--------|

  |               |               |               |                 
|------------------------------------------------------------------|
|------------------------------------------------------------------|
|---------3---3---3-----------------------3---3---3----------------|
|---------------------------------------------------------3--------|

  |               |               |               |                 
|-------------------------------------------------2----------------|
|---------------------------------2-----------------------0--------|
|-0---------------0------------------------------------------------|
|------------------------------------------------------------------|

  |               |               |               |                 
|-------------------------4-------2--------------------------------|
|---------------------------------------------------------5--------|
|-----------------5-----------------------5-------5----------------|
|------------------------------------------------------------------|

  |               |               |               |                 
|---------------------------------7--------------------------------|
|-------------------------5---5-----------5-------5----------------|
|---------------------------------------------5--------------------|
|---------------------------------------------------------8--------|

  |               |               |               |                 
|------------------------------------------------------------------|
|-----------------------------------------------------0---3--------|
|-----------------------------------------0---3--------------------|
|---------------------------------0---1----------------------------|

  |               |               |               |                 
|------------------------------------------------------------------|
|-2-----------------------------------2----------------------------|
|---------0-------0---0---0---------------0-------0-------0--------|
|-----------------------------------------------------1------------|

  |               |               |               |                 
|---------------------------------------------------------2--------|
|-----------------------------------------------------2------------|
|---------0-------0-------0---0-----------0-------4----------------|
|------------------------------------------------------------------|

  |               |               |               |                 
|-------------------------------------------------2----------------|
|-----------------------------------------------------2------------|
|---------0-------0---0---0---------------0---------------0--------|
|------------------------------------------------------------------|

  |               |               |               |                 
|---------------------------------------------------------2--------|
|-----------------------------------------------------2------------|
|---------0-------0---0---0---------------0-------4----------------|
|------------------------------------------------------------------|

  |               |               |               |                 
|------------------------------------------------------------------|
|-2-------2---2---2---2---2-------0-------0---0---0-----------0----|
|------------------------------------------------------------------|
|------------------------------------------------------------------|

  |               |               |               |                 
|------------------------------------------------------------------|
|-----------------------------------------------------0---3--------|
|-3---------------------------------------0---3--------------------|
|---------------------------------0---1----------------------------|

  |               |               |               |                 
|------------------------------------------------------------------|
|-2----------------------------------------------------------------|
|---------0-------0---0---0---------------0-------0---0---0--------|
|------------------------------------------------------------------|

  |               |               |               |                 
|---------------------------------------------------------2--------|
|-----------------------------------------------------2------------|
|---------0-------0---0---0---------------0-------4----------------|
|------------------------------------------------------------------|

  |               |               |               |                 
|------------------------------------------------------------------|
|-----------------2------------------------------------------------|
|---------0-----------0---0---------------0---------------0--------|
|-------------------------------------------------1---1------------|

  |               |               |               |                 
|---------------------------------------------------------2--------|
|-----------------2-----------------------------------2------------|
|---------0-----------0---0---------------0-------4----------------|
|------------------------------------------------------------------|

  |               |               |               |                 
|------------------------------------------------------------------|
|------------------------------------------------------------------|
|---------0-------0---0---0---------------0-------0-------0--------|
|------------------------------------------------------------------|

  |               |               |               |                 
|---------------------------------------------------------2--------|
|-----2-----------------------------------------------2------------|
|---------0-------0-------0---0-----------0-------4----------------|
|------------------------------------------------------------------|

  |               |               |               |                 
|------------------------------------------------------------------|
|------------------------------------------------------------------|
|---------0-------0---0---0---------------0-------0---0---0--------|
|------------------------------------------------------------------|

  |               |               |               |                 
|---------------------------------------------------------2--------|
|-----------------------------------------------------2------------|
|---------0-------0---0---0---------------0-------4-------0--------|
|------------------------------------------------------------------|




Created with TablEdit http://www.tabledit.com/


............................................................
Get this song at amazon.com      Ebay     Ringtones Ringtones  


Learn to play: Songwriting, Piano, Harmonica, Guitar
Also available at Muzikum: Led Zeppelin - Ten Years Gone lyrics

Related Led Zeppelin Bass Tabs

Kashmire bass
California Girls bass
Achelles Last Stand bass
Dazed And Confused Note For Note bass
Bron-y-aur Stomp (correct) bass
Black Dog(100% Correct) bass
The Song Remains The Same bass
Friends bass
The Ocean-perfect bass
The Crunge bass
Boogie With Stu bass
Dazed And Confused (finally Correct?) bass
Houses Of The Holy bass
Kashmir bass
Whole Lotta Of Love bass
Four Sticks bass
When The Levee Breaks bass
The Girl I Love She Got Long Black Wavy Hair bass
Bring It On Home- The Whole Song bass
Dancing Days bass


Guitar Tabs









All tabs are property and copyright of their owners. All tabs provided for educational purposes only. Privacy Policy, DMCA