Led Zeppelin

Ten Years Gone Solo Tabs



More from Led Zeppelin

Led Zeppelin Tabs
Led Zeppelin Chords
Led Zeppelin Bass
Led Zeppelin Lyrics

e|10-/-12--10----------------------------------------------------------------|
B|10-/-12--10----------------------------------------------------------------|
G|-9-/-11---9---9-/-11--9----9(11)--9(11)----9(11)--9--7---------------------|
D|--------------9-/-11--9---------------------------------9------------------|
A|-----------------------------------------------------------10~-------------|
E|---------------------------------------------------------------------------|
e|--------------------------7--7---------------------------------------------|
B|--------------------------8--7---------------------------------------------|
G|9(11)9--7----7--9--7~------------7-----------------------------------------|
D|----------9--------------------------7-------------------------------------|
A|----------------------------------------10--9~-----------------------------|
E|---------------------------------------------------------------------------|
e|7h10p7---5h7p5-----7h10p7---5h7p5-----7h10p7----7--7--7--7-----------------|
B|7h10p7---5h7p5-----7h10p7---5h7p5-----7h10p7----7-h8--8-h10--/12~----------|
G|---------------6------------------6----------------------------------------|
D|---------------------------------------------------------------------------|
A|---------------------------------------------------------------------------|
E|---------------------------------------------------------------------------|
e|---------------------------------------------------------15--17--17(19)----|
B|------15---17(19)--17(19)--17(19)---17----15~-----17(19)----------------15~|
G|-/16-----------------------------------16----------------------------------|
D|---------------------------------------------------------------------------|
A|---------------------------------------------------------------------------|
E|---------------------------------------------------------------------------|
e|---------17(19)--15--17--15--17--15----------------------------------------|
B|17(19)-----------------------------------15--17--15--17(18)17-p-15-h17~----|
G|------------------------------------16-------------------------------------|
D|---------------------------------------------------------------------------|
A|---------------------------------------------------------------------------|
E|---------------------------------------------------------------------------|
e|17-17-17---------------10-/-12-/-10-------7h10p7---5---7h10p7---5h7p5------|
B|---------(18)17--15----10-/-12-/-10-------7h10p7---5---7h10p7---5h7p5------|
G|-----------------------------------------------------6----------------6----|
D|---------------------------------------------------------------------------|
A|---------------------------------------------------------------------------|
E|---------------------------------------------------------------------------|
e|7h10p7---5h7p5---7h10p7---5h7p5------------------------------------15-16-17|
B|7h10p7---5h7p5---7h10p7---5h7p5----------------------15-17--17(19)---------|
G|---------------6----------------7--7-/12--/16~--/16------------------------|
D|---------------------------------------------------------------------------|
A|---------------------------------------------------------------------------|
E|---------------------------------------------------------------------------|
e|-17(19)-----17------------17-----------------------------------------------|
B|--------15-----17(19)--15----17(19)-15-17(19)(17)--15~---------------------|
G|---------------------------------------------------------------------------|
D|---------------------------------------------------------------------------|
A|---------------------------------------------------------------------------|
E|----------------------------------------------do you ever really etc-------|
| / slide up
| slide down
| h hammer-on
| p pull-off
| ~ vibrato
| + harmonic
| x Mute note



Get this song at amazon.com      Ebay     Ringtones Ringtones  


Learn to play: Songwriting, Piano, Harmonica, Guitar
More Led Zeppelin lyrics available at Muzikum

Related Led Zeppelin Tabs

Babe Im Gonna Leave You Intro tabs
Jennings Farm Blues tabs
The Battle Of Evermore (chords) tabs
Since Ive Been Loving You tabs
Rock And Roll tabs
Since I've Been Loving You tabs
Babe Im Gonna Leave You tabs
How Many More Times Solo tabs
Darlene tabs
Ozone Baby tabs
Royal Orleans tabs
White Summer tabs
The Girl I Love tabs
Bron Y Aur Stomp tabs
Time Of Dying tabs
Trampled Under Foot tabs
Over The Hills And Far Away tabs
Babe, I'm Gonna Leave You tabs
Gallows Pole tabs
As Long As I Have You tabs


Guitar Tabs









All tabs are property and copyright of their owners. All tabs provided for educational purposes only. Privacy Policy, DMCA