Led Zeppelin

Stairway To Heaven (acoustic) Tabs



More from Led Zeppelin

Led Zeppelin Tabs
Led Zeppelin Chords
Led Zeppelin Bass
Led Zeppelin Lyrics

Tabber: shadowsfall911 or Rylend James is my real names. Hope u guys like the tab.

If u guys have any questions about this tab email me at webmaster at tabs-database.com.com

Later, ROCK ON



Am E5+/G# C/G D/F#

E||-----------5--7--------7--|--8--------8--2--------2--|

B||--------5--------5--------|-----5-----------3--------|

G||-----5--------------5-----|--------5-----------2-----|

D||--7-----------6-----------|--5-----------4-----------|

A||--------------------------|--------------------------|

E||--------------------------|--------------------------|





FM7 G/BAm E+5/G#

--0-------------0--------|------------------------|--------------7--------7--|

-----1-----1-------1-----|--0--1--1---------------|-----------5-----5--------|

--------2-------------2--|--0--2--2---------------|--------5-----------5-----|

--3----------------------|------------------------|-----7--------6-----------|

-------------------------|--2--0--0------0/-8p-7--|--0-----------------------|

-------------------------|------------------------|--------------------------|





C/G D/F# FM7 G/BAm

--8--------8--2--------2--|--0-------------0--------|-----------------------|

-----5-----------3--------|-----1-----1-------1-----|--0--1--1--------------|

--------5-----------2-----|--------2-------------2--|--0--2--2--------------|

--5-----------4-----------|--3----------------------|-----------------------|

--------------------------|-------------------------|--2--0--0--------0--2--|

--------------------------|-------------------------|-----------------------|





C D FM7 Am

-----------0--2--------2--|--0--------0--------------|

-----------------3--------|-----1--------1-----------|

--------0-----------2-----|--------2--------2--------|

-----2--------0-----------|--3-----------------------|

--3-----------------------|--------------0-----0--2--|

--------------------------|--------------------------|





C G D C D

--------------3--------3--|--3p2-2--2--------------|--------------2--------2--|

--1--------1-----0--------|--3---3--3--------------|-----------1-----3--------|

-----0--------------0-----|--2---2--2--------------|--------0-----------2-----|

--------2-----------------|--0---0--0--------------|-----2--------0-----------|

--3-----------------------|------------------0--2--|--3-----------------------|

--------------3-----------|------------------------|--------------------------|





FM7 Am C D FM7

--0--------0--------------|-----------0-----------2--|--0--0--0------------|

-----1--------1-----------|--------------------3-----|--1--1--1------------|

--------2--------2--------|--------0--------2--------|--2--2--2------------|

--3-----------------------|-----2--------0-----------|--3--3--3------------|

--------------0-----0--2--|--3-----------------------|---------------------|

--------------------------|--------------------------|---------------------|





Am E5+/G# C/G D/F# FM7

-----------5--7--------7--|--8--------8--2--------2--|--0-------------0--------|

--------5--------5--------|-----5-----------3--------|-----1-----1-------1-----|

-----5--------------5-----|--------5-----------2-----|--------2-------------2--|

--7-----------6-----------|--5-----------4-----------|--3----------------------|

--------------------------|--------------------------|-------------------------|

--------------------------|--------------------------|-------------------------|





G/BAm E5+/G# C/G D/F#

---------------------|-----------5--7--------7--|--8--------8--2--------2--|

--0--1--1------------|--------5--------5--------|-----5-----------3--------|

--0--2--2------------|-----5--------------5-----|--------5-----------2-----|

---------------------|--7-----------6-----------|--5-----------4-----------|

--2--0--0------------|--------------------------|--------------------------|

---------------------|--------------------------|--------------------------|





FM7 G/BAm C D

--0-------------0--------|-----------------------|--------------2--------2--|

-----1-----1-------1-----|--0--1--1--------------|-----------1-----3--------|

--------2-------------2--|--0--2--2--------------|--------0-----------2-----|

--3----------------------|-----------------------|-----2--------0-----------|

-------------------------|--2--0--0--------0--2--|--3-----------------------|

-------------------------|-----------------------|--------------------------|





FM7 Am C G D

--0--------0--------------|--------------3--------3--|--3p2-2--2--------------|

-----1--------1-----------|--1--------1-----0--------|--3---3--3--------------|

--------2--------2--------|-----0--------------0-----|--2---2--2--------------|

--3-----------------------|--------2-----------------|--0---0--0--------------|

--------------0-----0--2--|--3-----------------------|------------------0--2--|

--------------------------|--------------3-----------|------------------------|





C D FM7 Am

--------------2--------2--|--0--------0--------------|

-----------1-----3--------|-----1--------1-----------|

--------0-----------2-----|--------2--------2-----0--|

-----2--------0-----------|--3-----------------------|

--3-----------------------|--------------0-----0--2--|

--------------------------|--------------------------|





C D FM7 Am E5+/G#

--------------2--------2--|--0--0--0------------|-----------5--7--------7--|

--1--------1-----3--------|--1--1--1------------|--------5--------5--------|

-----0--------------2-----|--2--2--2------------|-----5--------------5-----|

--------2-----0-----------|--3--3--3------------|--7-----------6-----------|

--3-----------------------|---------------------|--------------------------|

--------------------------|---------------------|--------------------------|





C/G D/F# FM7 G/BAm

--8--------8--2--------2--|--0-------------0--------|------------------------|

-----5-----------3--------|-----1-----1-------1-----|--0--1--1---------------|

--------5-----------2-----|--------2-------------2--|--0--2--2---------------|

--5-----------4-----------|--3----------------------|------------------------|

--------------------------|-------------------------|--2--0--0------0/-8--7--|

--------------------------|-------------------------|------------------------|





E+5/G# C/G D/F#

-----------5--7-------7-------|--------8--------------2--------|

----------------5---5---5-----|------5---5----------3---3------|

--------5---------5-------5---|----5-------5------2-------2----|

-----7--------6-------------x-|--5-----------5--4-----------4--|

--0---------------------------|--------------------------------|

------------------------------|--------------------------------|





FM7 G/BAm G/B

--------0-------------0--------|----------------------|

------1----1--------1---1------|--0--1--1--------3----|

----2--------2----2-------2----|--0--2--2--------0----|

--3-------------3-----------3--|-----------------0----|

-------------------------------|--2--0--0--------2----|

-------------------------------|----------------------|





Am7 A7su D/A Am7 Em/D

--3--3-3-3--3----0----3--|----2-------2--2-2-2-----|--3--3-3-3--3----0----7--|

--1--1-1-1--1----1----3--|----3-------3--3-3-3--0--|--1--1-1-1--1----1----8--|

--0--0-0-0--0----0----0--|----2-------2--2-2-2--0--|--0--0-0-0--0----0----9--|

--2--2---2--2----2----2--|----0----0------------0--|--2--2-2-2--2----2----0--|

--0-------------------0--|----0----0------------0--|--0----------------------|

-------------------------|-------------------------|-------------------------|





D C/D Am7 A7su D

----5--x--3----5-------|--3--3-3-3--3----0----3--|----2-----------2-2-2--0-0-|

----7--x--5----7-------|--1--1-1-1--1----1----3--|----3-------3---3-3-3--0-0-|

----7--x--5----7-------|--0--0-0-0--0----0----0--|----2-------0h2-2-2-2--0-0-|

--------------------2--|--2--2---2--2----2-------|----0----0-----------------|

--------------------0--|--0-------------------0--|---------------------------|

-----------------------|-------------------------|---------------------------|





Am7 Em/A D C/D D C G/B

--3--3-3-3--0-----0----7--|----5--x--3----5------|--------------------------|

--1--1-1-1--1--x--1----8--|----7--x--5----7------|-----------1-----------3--|

--0--0-0-0--0--x--0----9--|----7--x--5----7------|--------0-----------0-----|

--2--2-2-2--2--x--2-------|----------------------|-----2-----------0--------|

--0-----------------------|----------------------|--3-----------2-----------|

--------------------------|----------------------|--------------------------|





Am C G/B FM7 Am

---------------------------|-----------------------0--|----0----------------|

--0h1-------------1--------|-----------1-----------1--|----1----------------|

------2--------2-----------|--------0-----------0--2--|----2----------------|

------------2--------------|-----2-----------0-----3--|----2----------------|

---------0-----------0--2--|--3-----------2--------3--|----0----------0--2--|

---------------------------|-----------------------1--|---------------------|





C G/B Am

--------------------------|---------------------------|

-----------1-----------3--|--0h1-------------1--------|

--------0-----------0-----|------2--------2-----------|

-----2-----------0--------|------------2--------------|

--3-----------2-----------|--0------0-----------0--2--|

--------------------------|---------------------------|





C G/B FM7 Am C G/B

-----------------------0--|----0----------------|--------------------------|

-----------1-----------1--|----1----------------|-----------1-----------3--|

--------0-----------0--2--|----2----------------|--------0-----------0-----|

-----2-----------0-----3--|----2----------------|-----2-----------0--------|

--3-----------2--------3--|----0----------0--2--|--3-----------2-----------|

-----------------------1--|---------------------|--------------------------|





Am7 A7su D

--3--3-3-3--3--x-x-0--x--3--|--x--2-------2-2-2-2-2------|

--1--1-1-1--1--x-x-1--x--3--|--x--3-------3-3-3-3-3--0-0-|

--0--0-0-0--0--x-x-0--------|-----2-------2-2-2-2-2--0-0-|

--2--2-2-2--2--x-x-2--x--5--|--x--0----------------------|

--0-------------------------|----------0-----------------|

----------------------------|----------------------------|





Am7 Em/D D C/D D

--3--3-3-3--3--x--0--x-x-7--|--x-x-5--x-x-3--x-x-5--5-5----|

--1--1-1-1--1--x--1--x-x-8--|--x-x-7--x-x-5--x-x-7--7-7----|

--0--0-0-0--0--x--0--x-x-9--|--x-x-7--x-x-5--x-x-7--7-7----|

--2--2-2-2--2--x--2--x-x----|--------------------0---------|

--0-------------------------|---------------------------0--|

----------------------------|------------------------------|





Am7 A7su D Em

--3--3-3-3--3--x-x-0--x-x-3--|--x--2-------2--2-2-2------|

--1--1-1-1-----x-x-1--x-x-3--|--x--3-------3--3-3-3--0-0-|

--0--0-0-0--0--x-x-0--x-x----|-----2-------2--2-2-2--0-0-|

--2--2-2-2--2--x-x-2--x-x-5--|--x--0----0------------2---|

-----------------------------|---------------------------|

-----------------------------|---------------------------|





Am7 Em/D D C D

--3--3-3-3--3--x-0-0--x-x-7--|--x--5--x--3--x--5------|

--1--1-1-1--1--x-1-1--x-x-8--|--x--7--x--5--x--7------|

--0--0-0-0--0--x-0-0--x-x-9--|--x--7--x--5--x--7------|

--2--2---2--2--x-2-2--x-x-0--|-----------------0------|

--0--------------------------|------------------------|

-----------------------------|------------------------|





C G/B Am

--------------------------|---------------------------|

-----------1-----------3--|--0h1-------------1--------|

--------0-----------0-----|------2--------2-----------|

-----2-----------0--------|------------2--------------|

--3-----------2-----------|---------0-----------0--2--|

--------------------------|---------------------------|





C G/B FM7 Am C G/B

-----------------------0--|----0----------------|--------------------------|

-----------1-----------1--|----1----------------|-----------1-----------3--|

--------0-----------0--2--|----2----------------|--------0-----------0-----|

-----2-----------0-----3--|----2----------------|-----2-----------0--------|

--3-----------2--------3--|----0----------0--2--|--3-----------2-----------|

-----------------------1--|---------------------|--------------------------|





Am C G/B FM7 Am

---------------------------|-----------------------0--|----0----------------|

--0h1-------------1--------|-----------1-----------1--|----1----------------|

------2--------2-----------|--------0-----------0--2--|----2----------------|

------------2--------------|-----2-----------0-----3--|----2----------------|

--0------0-----------0--2--|--3-----------2--------3--|----0----------0--2--|

---------------------------|-----------------------1--|---------------------|





C G/B Am7 A7su

--------------------------|--3--3-3-3--3--x-x-0--x--3--|

-----------1-----------3--|--1--1-1-1--1--x-x-1--x--3--|

--------0-----------0-----|--0--0-0-0--0--x-x-0--------|

-----2-----------0--------|--2--2-2-2--2--x-x-2--x--5--|

--3-----------2-----------|--0-------------------------|

--------------------------|----------------------------|





D Am7 Em

--x--2-------2-2-2-2-2------|--3--3-3-3--3--x--0--x-x-7--|

--x--3-------3-3-3-3-3--0-0-|--1--1-1-1--1--x--1--x-x-8--|

-----2-------2-2-2-2-2--0-0-|--0--0-0-0--0--x--0--x-x-9--|

--x--0----------------------|--2--2-2-2--2--x--2--x-x----|

----------0-----------------|--0-------------------------|

----------------------------|----------------------------|





D C D Am7 A7su

--x-x-5--x-x-3--x-x-5--5-5----|--3--3-3-3--3--x-x-0--x-x-3--|

--x-x-7--x-x-5--x-x-7--7-7----|--1--1-1-1-----x-x-1--x-x-3--|

--x-x-7--x-x-5--x-x-7--7-7----|--0--0-0-0--0--x-x-0--x-x----|

--------------------0---------|--2--2-2-2--2--x-x-2--x-x-5--|

---------------------------0--|-----------------------------|

------------------------------|-----------------------------|





D Em Am7 Em

--x--2-------2--2-2-2------|--3--3-3-3--3--x-0-0--x-x-7--|

--x--3-------3--3-3-3--0-0-|--1--1-1-1--1--x-1-1--x-x-8--|

-----2-------2--2-2-2--0-0-|--0--0-0-0--0--x-0-0--x-x-9--|

--x--0----0------------2---|--2--2---2--2--x-2-2--x-x-0--|

---------------------------|--0--------------------------|

---------------------------|-----------------------------|





D C D C G/B Am

--x--5--x--3--x--5------|--------------------------|---------------------------|

--x--7--x--5--x--7------|-----------1-----------3--|--0h1-------------1--------|

--x--7--x--5--x--7------|--------0-----------0-----|------2--------2-----------|

-----------------0------|-----2-----------0--------|------------2--------------|

------------------------|--3-----------2-----------|---------0-----------0--2--|

------------------------|--------------------------|---------------------------|





C G/B FM7 Am C G/B

-----------------------0--|----0----------------|--------------------------|

-----------1-----------1--|----1----------------|-----------1-----------3--|

--------0-----------0--2--|----2----------------|--------0-----------0-----|

-----2-----------0-----3--|----2----------------|-----2-----------0--------|

--3-----------2--------3--|----0----------0--2--|--3-----------2-----------|

-----------------------1--|---------------------|--------------------------|





Am C G/B FM7 Am

---------------------------|-----------------------0--|----0----------------|

--0h1-------------1--------|-----------1-----------1--|----1----------------|

------2--------2-----------|--------0-----------0--2--|----2----------------|

------------2--------------|-----2-----------0-----3--|----2----------------|

--0------0-----------0--2--|--3-----------2--------3--|----0----------0--2--|

---------------------------|-----------------------1--|---------------------|





C G/B Am7 A7su

--------------------------|--3--3-3-3--3--x-x-0--x--3--|

-----------1-----------1--|--1--1-1-1--1--x-x-1--x--3--|

--------0-----------0-----|--0--0-0-0--0--x-x-0--------|

-----2-----------0--------|--2--2-2-2--2--x-x-2--x--5--|

--3-----------2-----------|--0-------------------------|

--------------------------|----------------------------|





D Am7 Em

--x--2-------2-2-2-2-2------|--3--3-3-3--3--x--0--x-x-7--|

--x--3-------3-3-3-3-3--0-0-|--1--1-1-1--1--x--1--x-x-8--|

-----2-------2-2-2-2-2--0-0-|--0--0-0-0--0--x--0--x-x-9--|

--x--0----------------------|--2--2-2-2--2--x--2--x-x----|

----------0-----------------|--0-------------------------|

----------------------------|----------------------------|





D C D Am7 A7su

--x-x-5--x-x-3--x-x-5--5-5----|--3--3-3-3--3--x-x-0--x-x-3--|

--x-x-7--x-x-5--x-x-7--7-7----|--1--1-1-1-----x-x-1--x-x-3--|

--x-x-7--x-x-5--x-x-7--7-7----|--0--0-0-0--0--x-x-0--x-x----|

--------------------0---------|--2--2-2-2--2--x-x-2--x-x-5--|

---------------------------0--|-----------------------------|

------------------------------|-----------------------------|





D Em Am7 Em

--x--2-------2--2-2-2------|--3--3-3-3--3--x-0-0--x-x-7--|

--x--3-------3--3-3-3--0-0-|--1--1-1-1--1--x-1-1--x-x-8--|

-----2-------2--2-2-2--0-0-|--0--0-0-0--0--x-0-0--x-x-9--|

--x--0----0------------2---|--2--2---2--2--x-2-2--x-x-0--|

---------------------------|--0--------------------------|

---------------------------|-----------------------------|





D C D C G/B Am

--x--5--x--3--x--5------|--------------------------|---------------------------|

--x--7--x--5--x--7------|-----------1-----------3--|--0h1-------------1--------|

--x--7--x--5--x--7------|--------0-----------0-----|------2--------2-----------|

-----------------0------|-----2-----------0--------|------------2--------------|

------------------------|--3-----------2-----------|---------0-----------0--2--|

------------------------|--------------------------|---------------------------|





C G/B FM7 Am C G/B

-----------------------0--|----0----------------|--------------------------|

-----------1-----------1--|----1----------------|-----------1-----------3--|

--------0-----------0--2--|----2----------------|--------0-----------0-----|

-----2-----------0-----3--|----2----------------|-----2-----------0--------|

--3-----------2--------3--|----0----------0--2--|--3-----------2-----------|

-----------------------1--|---------------------|--------------------------|





Am C G/B FM7 Am

---------------------------|-----------------------0--|----0----------------|

--0h1-------------1--------|-----------1-----------1--|----1----------------|

------2--------2-----------|--------0-----------0--2--|----2----------------|

------------2--------------|-----2-----------0-----3--|----2----------------|

--0------0-----------0--2--|--3-----------2--------3--|----0----------0--2--|

---------------------------|-----------------------1--|---------------------|





C G/B D Dsus4 D Dsus4 D

--------------------------|--2--------------0-2-|--3------0-2-3------0-2-|

-----------1-----------3--|--3--------------3-3-|--3------3-3-3------3-3-|

--------0-----------0-----|--2--------------2-2-|--2------2-2-2------2-2-|

-----2-----------0--------|--0--------------0-0-|--0------0-0-0------0-0-|

--3-----------2-----------|---------------------|------------------------|

--------------------------|---------------------|------------------------|





Dsus4 D Cadd9 D

--3----3----2----|-----------------------|---------------------------0-2-|

--3----3----3----|--3------3---3-3--3----|--3----3--3---3-3--3----3--3-3-|

--2----2----2----|--0------0---0-0--0----|--0----0--0---0-0--0----0--2-2-|

--0----0----0----|--2------2---2-2--2----|--2----2--2---2-2--2----2--0-0-|

-----------------|--3------3---3-3--3----|--3----3------3-3--3----3------|

-----------------|-----------------------|-------------------------------|





Dsus4 D Dsus4 D Dsus4 Cadd Cadd9#11 Cadd9

--3------0-2-3------0-2-|--3----3----2-------|------2---2-2--0--------|

--3------3-3-3------3-3-|--3----3----3----3--|------3---3-3-----3-----|

--2------2-2-2------2-2-|--2----2----2----2--|------0---0-0--------0--|

--0------0-0-0------0-0-|--0----0----0----0--|------------------------|

------------------------|-----------------3--|------3---3-3-----------|

------------------------|--------------------|------------------------|





G/B GM7/B

------------2----2----

--3----3----3----3----

--0----0----0----0---- ENJOY EVERYONE! Rock on forever

--0----0----0----0----

--2----2----2----2----

----------------------
Added by tabs-database.com and our distinguished partners
Get this song at amazon.com      Ebay     Ringtones Ringtones  


Learn to play: Songwriting, Piano, Harmonica, Guitar
More Led Zeppelin lyrics available at Muzikum

Related Led Zeppelin Tabs

Misty Mountain Hop tabs
All My Love tabs
The Lemon Song tabs
The Girl I Love Intro tabs
Presence tabs
How Many More Times Solo tabs
The Battle Of Evermore (chords) tabs
Good Times Bad Times tabs
Stairway To Heaven (the Best Tab Ever) tabs
Black Dog (Version 2) tabs
Your Time Is Gonna Come Bass tabs
Bron Yr Aur tabs
Going To California tabs
The Rover (2) tabs
Stairway To Heaven (blair's Version)100% Correct tabs
Heart Breaker (intro) tabs
Thank You tabs
Remasters Disc 1 tabs
When The Levee Breaks Bass tabs
Carouselambra tabs


Guitar Tabs









All tabs are property and copyright of their owners. All tabs provided for educational purposes only. Privacy Policy, DMCA

Online converter - videoconverter.com