Led Zeppelin

Since Ive Been Loving You Bass Tabs



More from Led Zeppelin

Led Zeppelin Tabs
Led Zeppelin Chords
Led Zeppelin Bass
Led Zeppelin Lyrics



Led- Zeppelin - Since Ive Been Loving you


sorry about the messyness of this tab, im going to try to fix er' up a bit and tab out the
solo


G|--------------------------------------------------------------------------------------------------------------------------------
D|----------------10------910-------------------------------------------------810--108------------------------------------
A|810-----108-8-11----1113-----1310--10------------8-88-88-88-88-88-88-88-8811--------1110--8108-
E|-----811-----------------------------11108-10-11----------------------------------------------8-------------------------

G|--------------------------------------------------------------------------------------------------------------------------|
D|------------------------------------------------------------------12-12-------------11-11---------------------------|
A|-----------810-1010-1010-1010-1011-1111-118-88-8-----------------------129---------------118----|
E|-88-88-8811-------------------------------------11-1110-108-811-10--------10-99-99-9--------9--8---|
VERSE 1:

"Working from seven.."
G|-----------------------------------------------------------------------------------------------------------------
D|-------10----------------8910-10----------10-10--10-------10-------------8-------10--10----------
A|---------------8-8-88-811--------------810------------88-----8-----88--11-88--10--------10-10-
E|88-88----111213-------------------8--11------------811------8---811-------------------------------

"Baby since I've been.."
------------------------------------------------------------------------------------------------------------------------
---------810--10-10------------------------------------------------------------------------------------------------
-------10----------10-1010-1010-1010-1011-1311-108-108-10----------------------------12-9-----
--8--11--------------------------------------------------11--10--8--11-1010101010-10------12-10------

------------------------------|
------------------------------|
---------11-8---------------|
-9-99-99------11-9988-|

VERSE 2:

"Everybody trying.." "it kinda makes life a.."
G|--------------------------------------------------------------------------------------------------------------------
D|----810-------------810------810--10--10-------------------------810-----------1010--8---------------
A|--10-----------8--11---8--810-------------10-----------88---8--11---8-8-8-81011-------111010--
E|11-------8-1011-------------------------------8-8-8-812----8----------------------------------------------

"Since I've been loving you"
G|-----------------------------------------------------------------------------------------------------------------------|
D|-------------12910910912910910912910910-------------------------------------------------------------|
A|8---------------------------------------10-10---810-1010-10101011-1311-108-108-10--------------|
E|-1110-10-8-8---------------------------------810---------------------------------11--10--8--11------------|

G|----------------------------------------------|
D|----------------------------------------------|
A|-----------12-9-108-----------------------|
E|1010101010--------1010-910-1010|

SOLO: I don't have it tabbed yet.

VERSE 3:
"Said I've been crying" "my tears they fell.."
G|----------------------------------------------------------------------------------------------------------
D|-----------------------------------------------------------------------------------------------------------
A|-------------------8---------------------------------------------------------------------------------------
E|-------------------------8--------------------------11-11-11-11--10-10-10-10-11--10--8--11-

G|-----------------------------------------------|
D|-----------------------------------------------|
A|-----------12-9-108------------------------|
E|1010101010---------1010-910-1010|
VERSE 4:
"Do you remember, mama.."
G|----------------------------------------------------------------------------------------------------
D|---10-----------10---------------810--10---------------810--10----------------------------
A|-----10------8----8---8---8--811-----------8--8--8--811---------8-8-8-8--8-8-8-88--
E|8------118--8--------8---8--8-------------8--8--8--8--------------------8--------11108-

G|--------------------------------------------------------------------------------------------------------------------
D|--------------------------------------------------------------------------------------------------------------------
A|----8101010101010------810101010---10-1010-1010-1010-1011-1311-108-108-10-----
E|8811-------------888811---------811--------------------------------------1111-1010-88-1111-------
"just one more" "Ahhhh!"
G|--------------------------------------------------------------------------------------------------------------
D|--------------------------------------------------------------------------------------------------------------
A|----------12-9-108---------------11-1111-1111-1111-11108-810-10111088-11108-----
E|1010101010--------1010-910-1010--------------------------------------------11--10--8--11--

G|-----------------------------------------------------------------|
D|-----------12-12----------------11-12----------------------|
A|----------------1212-----------------1111------------------|

Taken from The BassMasta -- http://www.tabs-database.com



Get this song at amazon.com      Ebay     Ringtones Ringtones  


Learn to play: Songwriting, Piano, Harmonica, Guitar
Also available at Muzikum: Led Zeppelin - Since I've been loving you lyrics

Related Led Zeppelin Bass Tabs

Walters Walk bass
Hey Hey What Can I Do bass
Dancin Days bass
Tangerine bass
What Is And What Should Never Be bass
How Many More Times bass
Whole Lotta Love bass
Trampled Under Foot bass
Night Flight bass
Achilles Last Stand bass
Black Dog bass
Over The Hills And Far Away bass
Bring It On Home- The Whole Song bass
Black Dog Bass Tab bass
Dazed And Confused Note For Note bass
Kashmir bass
Im Gonna Crawl bass
Stairway To Heaven bass
Ten Years Gone bass
Misty Moutain Hop bass


Guitar Tabs









All tabs are property and copyright of their owners. All tabs provided for educational purposes only. Privacy Policy, DMCA