Led Zeppelin

Since I've Been Loving You Tabs



More from Led Zeppelin

Led Zeppelin Tabs
Led Zeppelin Chords
Led Zeppelin Bass
Led Zeppelin Lyrics




Since I've been loving you
Led Zeppelin

E||---------8---------|-----------------------11-10-8-10-11-|
B||------8-----11--8--|--11b--------------------------------|
G||-------------------|-------------------------------------|
D||-------------------|-------------------------------------|
A||-------------------|-------------------------------------|
E||-------------------|-------------------------------------|



--10-8---10-8------------------------------------------|
-------9------9-9-9-----8------------------------------|
--------------------------10------7-8-10-7-8-----------|
---------------------------------------------10-8------|
--------------------------------------------------10-8/|
-------------------------------------------------------|



----------------------------------------|------------------------------------|
----------------------------------------|------------------------------16-18-|
-----------------------8h7----7-8-10-10/|--12------------12-12---------------|
-----10--------------------10-----------|------------------------------------|
--6-------------------------------------|------------------------------------|
----------------------------------------|------------------------------------|



-------------------------------------------------------------------------|
--20h18h16-18-20-18-16-18-16------------------18h20h18h16-18-20-18-16-18-|
-----------------------------17-17-17------------------------------------|
-------------------------------------------------------------------------|
-------------------------------------------------------------------------|
-------------------------------------------------------------------------|



-----------------------------8----------------------|
-----------11b--11~--------8---11-8-----------------|
--17--------------------10b---------11h10h8----10h8-|
--------------------------------------------10------|
----------------------------------------------------|
----------------------------------------------------|



----------------------------------------------------------|
----------------------------------------------------11-13-|
--8h7--------------8h7------------8h7----7-8-10/12--------|
------10-8-8-8---------10-8-8---------10------------------|
----------------------------------------------------------|
----------------------------------------------------------|



---------------11-13-13b13-11-13-13b-------------|
--13-----11h13-----------------------------------|
-------------------------------------------------|
-------------------------------------------------|
-------------------------------------------------|
-------------------------------------------------|



-------------------------------10-13-13b--13b--------------|
--11h8----11h8----8-8-------11----------------------9--11--|
-------10------10--------12--------------------------------|
-----------------------------------------------------------|
-----------------------------------------------------------|
-----------------------------------------------------------|



--------11--------11-----13b---13b-13~---13b-|--11-----------------------------|
--11b-------11b------11----------------------|-----13/----x--------------------|
---------------------------------------------|---------------------------------|
---------------------------------------------|---------------------------------|
---------------------------------------------|---------------------------------|
---------------------------------------------|-------------------------11------|



-----------------------------------------|-----------------------------|
-----------------------------------------|-----------------------4--4--|
-----5-----5r-----------5-----5r-5-------|-----------------------5--5--|
-----4---4--------4--3--3---3---------3--|--1--------------------------|
--5-----------------------------------4--|--3--------------------------|
-----------------------------------------|-----------------------------|



--------------------------------|------------------------------------|
--------------------------------|------------------------------------|
--1----------------8--10b---10b-|--10b-------------------10r-8-10-10b|
--------------------------------|------------------------------------|
--------------------------------|------------------------------------|
--------------------------------|------------------------------------|



---------------------6b-6b-6-----------------|--------------------------------|
-----------------------------8h6-----------6-|--6-----------------------------|
--8------------------------------8h7h5-7-8---|----5-5----------------1--3--5--|
----10-10------------------------------------|-----------------------3--5--6--|
---------------------------------------------|--------------------------------|
---------------------------------------------|--------------------------------|



--------------------------------------|---------------------------------|
--------------------------------------|---------------------------------|
--5--3--1--3/1---3/1-3/1---3/1-----3--|--5------------------5-7-8-7-5---|
--6--5--3--5/3---5/3-5/3---5/3-----5--|--5----------------------------8-|
--------------------------------------|---------------------------------|
--------------------------------------|---------------------------------|



---------------------6--------------------------------|------------------------------|
--------6h7h6------8---6h7h6---6----------------------|--3----3----------------------|
--5-7-8-------8-5------------8---8-5---5-7h8h7h8-5----|--3----3----------------------|
-------------------------------------8-------------8/-|--5----5----------------5--5--|
------------------------------------------------------|-------5----------------5--5--|
------------------------------------------------------|------------------------3--3--|



----------------------------------|------------------------------|
----------------------------------|------------------------------|
----------------------------------|--5------4------5------3------|
--6----8--6----5--3----5--3----5--|--5------5------5------5------|
--6----8--6----5--3----5--3----5--|--6------5------6------6------|
--4----6--4----3--1----3--1----3--|------------------------------|



-----------------------------------------|
-----------------------------------------|
-----5-----5r-----------5-----5r-5-------|
--4------4--------4--3------3---------3--|
--------------------------------------4--|
-----------------------------------------|



--------------------------------------------------|
--------4---------3-----3---4-----4-----3-----4---|
------5---5---------5---------5-----5-----5-----5-|
----5-------5---5-----5---------5-----------5-----|
--3-----------3-----------3-----------3-----------|
--------------------------------------------------|



----------------------1-----3-----3-----1---------|
----1-----1-----1-------1-----1-----1-----1---1---|
------1-----1-----1-------------1-----------1---1-|
--3-----3-----3-----3-----3-----------3-----------|
--------------------------------------------------|
--------------------------------------------------|



--------------------------------------------------|
------4-------3-------3-----4-----4-----3-----3---|
--------5---5---5---5---5-----5-----5-----5-----5-|
----5-----5-------5-------------5-----------5-----|
--3-----------------------3-----------3-----------|
--------------------------------------------------|



--------------------------------------------------|
----4-----4-----3-----3-----4-----4---------------|
------5-----5-----5-----5-----5-----5-5-5-5-5-3-3-|
--------5-----------5-----------5-----6-6-6-6-5-5-|
--3-----------3-----------3-----------------------|
--------------------------------------------------|



--------------------------------------------|------------------------------|
--------------------------1-----------1-----|-------------4-4--------------|
--1-------1-----1-------1---1-------1---1---|--1----------5-5-----------5--|
--3---------3-----3---3-------3---3-------3-|--3---------------------------|
--3-----------3-----3-----------3-----------|------------------------------|
--------------------------------------------|------------------------------|



--8--8-8--8-8--x-x-8-x-8-----x-8-8-----8-x---8-|
-----------------x-x-x---x-x-x---x-x-x-x-x-x-x-|
---------------------x-x-x-x-x-x-x-x-x-x-x-x-x-|
-----------------------x---x---x---------------|
-----------------------------------------------|
-----------------------------------------------|



--8-7-8-7-8-7-8-7-8-7-8-7-8-7-8-7-8-7-8-7-8-7-8-7-|--3--------------------------|
--4-3-4-3-4-3-4-3-4-3-4-3-4-3-4-3-4-3-4-3-4-3-4-3-|--3------3-------------------|
--------------------------------------------------|--3------3------3------------|
--------------------------------------------------|--5------5------5------------|
--------------------------------------------------|--5------5------5------------|
--------------------------------------------------|--3--------------------------|



----------------------------------|------------------------------|
----------------------------------|------------------------------|
----------------------------------|--5------4------5------3------|
--6----8--6----5--3----5--3----5--|--5------5------5------5------|
--6----8--6----5--3----5--3----5--|--6------5------6------6------|
--4----6--4----3--1----3--1----3--|------------------------------|



-----------------------------------------|
-----------------------------------------|
-----5-----5r-----------5-----5r-5-------|
--4------4--------4--3------3----3----3--|
--------------------------------------4--|
-----------------------------------------|



------------------------------------------------------|
------------------------------------------------------|
--5--5--5-5--5-5--5--5-5--5-5--5--5-5--5-5--5--5-5--5-|
--5--5--5-5--5-5--5--5-5--5-5--5--5-5--5-5--5--5-5--5-|
--3--3--3-3--3-3--3--3-3--3-3--3--3-3--3-3--3--3-3--3-|
------------------------------------------------------|



----------------------------------------------|------------------------------------------|
----------------------------------------------|------------------------------------------|
----------------------------------------------|--5--5--5--5--5--5--5--5--5--5--5--5-5--5-|
--3--3--3--3--3--3-3--3-3--3--3--3--3--3-3--3-|--5--5--5--5--5--5--5--5--5--5--5--5-5--5-|
--3--3--3--3--3--3-3--3-3--3--3--3--3--3-3--3-|--3--3--3--3--3--3--3--3--3--3--3--3-3--3-|
--1--1--1--1--1--1-1--1-1--1--1--1--1--1-1--1-|------------------------------------------|



--------------------------------------------------|
--------------------------------------------------|
--5--5--5-5--5-5--5--5-5--5-5--5--5-5--5-5--5--5--|
--5--5--5-5--5-5--5--5-5--5-5--5--5-5--5-5--5--5--|
--3--3--3-3--3-3--3--3-3--3-3--3--3-3--3-3--3--3--|
--------------------------------------------------|



--------------------------------------------------|
--------------------------------------------------|
--------------------------------------------------|
--3-x---3-3--3-3--3--3--3-x---3-3--3-3-x---3-3--3-|
--3-x---3-3--3-3--3--3--3-x---3-3--3-3-x---3-3--3-|
--1-1---1-1--1-1--1--1--1-1---1-1--1-1-1---1-1--1-|



-------------------------------------------------------|
-------------------------------------------------------|
-------------------------------------------------------|
--3---3--3-3---3--3-3---3--3-3--3--3--3-3--3-3--3-3--3-|
--3---3--3-3---3--3-3---3--3-3--3--3--3-3--3-3--3-3--3-|
--1---1--1-1---1--1-1---1--1-1--1--1--1-1--1-1--1-1--1-|



--------------------------------------------------|
--------------------------------------------------|
--5-x---5-5--5-5--5--5--5--5--5-5--5-5--5--5-5--5-|
--5-x---5-5--5-5--5--5--5--5--5-5--5-5--5--5-5--5-|
--3-3---3-3--3-3--3--3--3--3--3-3--3-3--3--3-3--3-|
--------------------------------------------------|



--------------------------------------------------|
--------------------------------------------------|
--5--5--5--5--5--5-5--5-5--5--5--5-5--5-5--5-5--5-|
--5--5--5--5--5--5-5--5-5--5--5--5-5--5-5--5-5--5-|
--3--3--3--3--3--3-3--3-3--3--3--3-3--3-3--3-3--3-|
--------------------------------------------------|



----------------------------------------------|----------------------------------|
----------------------------------------------|----------------------------------|
----------------------------------------------|----------------------------------|
--5--5--5--5--5--5-5--5-5--5--5--5--5--5-5--5-|--6----8--6----5--3----5--3----5--|
--5--5--5--5--5--5-5--5-5--5--5--5--5--5-5--5-|--6----8--6----5--3----5--3----5--|
--3--3--3--3--3--3-3--3-3--3--3--3--3--3-3--3-|--4----6--4----3--1----3--1----3--|



------------------------------|----------------------------------------|
------------------------------|----------------------------------------|
--5------4------5------3------|-----5-----5r-----------5-----5r--------|
--5------5------5------5------|--4------4--------4--3------3--------3--|
--6------5------6------6------|-------------------------------------4--|
------------------------------|----------------------------------------|



---------------------------|--------------------------------------------|
---------------------------|--------------------------------------------|
--5------------------------|---------3-5b-5b-5--3-5h3-------------------|
--5------------------------|------5-------------------5-5---------------|
--3------------------------|-------------------------------3h1----------|
---------------------------|-----------------------------------3-3------|



--3------------------------|------------------------------------|
--4------------------------|------------------------------------|
--5------------------------|--8------8--8--8--8--8--8--8--8--8--|
--5------------------------|--8------8--8--8--8--8--8--8--8--8--|
--3------------------------|--6------6--6--6--6--6--6--6--6--6--|
---------------------------|------------------------------------|



--------------------------------------|------------------------------|
--------------------------------------|------------------------------|
--7--7--7--7--7--7--7--7--7--7--7--7--|--5------4------5------3------|
--7--7--7--7--7--7--7--7--7--7--7--7--|--5------5------5------5------|
--5--5--5--5--5--5--5--5--5--5--5--5--|--6------5------6------6------|
--------------------------------------|------------------------------|



----------------------------------------|
----------------------------------------|
-----5-----5r-----------5-----5r-5------|
--4------4--------4--3------3-----------|
----------------------------------------|
----------------------------------------|



-------------------10-----10------11-----11------10-----8---|
----------8---8-------8------8-------8------8-------8-----8-|
-----8------8-----------8--------------8--------------8-----|
--10---10-------10-------------10-------------10------------|
------------------------------------------------------------|
------------------------------------------------------------|



----1-----------3-----3-----4-----4-----3-----1---|
------1---1-------1-----1-----1-----1-----1-----1-|
--------1---1-------1-----------1-----------1-----|
--3-----------3-----------3-----------3-----------|
--------------------------------------------------|
--------------------------------------------------|



-----8-----8------10-----10------11-----11------8-----11---|
-------8-----8-------8------8-------8------8------8------8-|
---------8-------------8--------------8-------------8------|
--10-----------10-------------10-------------10------------|
-----------------------------------------------------------|
-----------------------------------------------------------|



-----12-------12----------------12----------12-------------12-------12-------12-------12----
--------11----------------11----------11----------11----------11-------11-------11-------11-
-----------12----12----12----12----12----12----12----12----------12----------------12-------
--10----------------10----------------------------------10----------------10----------------
--------------------------------------------------------------------------------------------
--------------------------------------------------------------------------------------------



----1-----1-----3-----3-----4-----4-----3-----3---|
------1-----1-----1-----1-----1-----1-----1-----1-|
--------1-----------1-----------1-----------1-----|
--3-----------3-----------3-----------3-----------|
--------------------------------------------------|
--------------------------------------------------|



----1-----1-----3-----3-----4-----4-----3-----3---|
------1-----1-----1-----1-----1-----1-----1-----1-|
--------1-----------1-----------1-----------1-----|
--3-----------3-----------3-----------3-----------|
--------------------------------------------------|
--------------------------------------------------|



-----8-----8------10-----10------11-----11------10-----8---|
-------8-----8-------8------8-------8------8-------8-----8-|
---------8-------------8--------------8--------------8-----|
--10-----------10-------------10-------------10------------|
-----------------------------------------------------------|
-----------------------------------------------------------|



-------8------8------8------8------8--------------------------------------|
-----8------8------8------8------8----------------------------------------|
--10b----10b----10b----10b----10b----10b--10-8----------------------------|
-----------------------------------------------10-------------------------|
--------------------------------------------------13-10-10----------10----|
-----------------------------------------------------------13-11-13----13/|



---------3--------------------|----------------------------------|
---------3--------------------|----------------------------------|
---------3--------------------|----------------------------------|
---------5--------------5--5--|--6----8--6----5--3----5--3----5--|
---------5--------------5--5--|--6----8--6----5--3----5--3----5--|
--3------3--------------3--3--|--4----6--4----3--1----3--1----3--|



------------------------------|----------------------------------------|
------------------------------|----------------------------------------|
--5------4------5------3------|-----5-----5r-----------5-----5r--------|
--5------5------5------5------|--4------4--------4--3------3--------5--|
--6------5------6------6------|-------------------------------------5--|
------------------------------|-------------------------------------3--|



--------------------------------------------------|-----------------------------------|
--------------------------------------------------|-----------------------------------|
--------------------------------------------------|-----------------------------------|
--6-6-6-6-6-6-6-6-6-6-6-6-6-6-6-6-6-6-6-6-6-6-6-6-|--6----8--6----5--6--5--3----5--5--|
--6-6-6-6-6-6-6-6-6-6-6-6-6-6-6-6-6-6-6-6-6-6-6-6-|--6----8--6----5--6--5--3----5--5--|
--4-4-4-4-4-4-4-4-4-4-4-4-4-4-4-4-4-4-4-4-4-4-4-4-|--4----6--4----3--4--3--1----3--3--|



------------------------------|----------------------------------------|
------------------------------|----------------------------------------|
--5------4------5------3------|-----5-----5r-----------5-----5r-5------|
--5------5------5------5------|--4------4--------4--3------3-----------|
--6------5------6------6------|----------------------------------------|
------------------------------|----------------------------------------|



--------------------------------------------|------------------------------|
--------------------------------------------|------------------------------|
--5/4/5/4/5/4/5/4/5/4/5/4-5/4/5/4/5/4/------|--7---7---7-7-----------------|
--------------------------------------------|------------------------------|
--6/5/6/5/6/5/6/5/6/5/6/5-6/5/6/5/6/5/------|------------------------------|
--------------------------------------------|------------------------------|



------------------|------------------||
------------------|------------------||
------------------|------------------||
------------------|------------------||
------------------|------------------||
------------------|------------------||

solo :
--------------------------8-------------------|
------------------------8---11h8-11h8----8----|
---------------------10b--------------10---10h|
----------------------------------------------|
----------------------------------------------|
----------------------------------------------|



--------------------------------------------------------------------------------------------
--------------------------------------------------------------------------------------------
--8----8--------------------------------------8---------10h8----10h8----8------------8-10-10
----10---10-8h10h8----8---------------------8---10h8-10------10------10---10-10-10----------
-------------------10---10/8-6h8-6---6-8/10-------------------------------------------------
-----------------------------------8--------------------------------------------------------



---------11-10-8---10-8------------------------------------------------|
-----8-9---------9------9-9-9-8----------------------------------------|
--------------------------------10-8-----------------------------------|
-------------------------------------10-8/6---8h6---6------5h6h5-------|
--------------------------------------------8-----8---8--8-------8-6/5-|
-----------------------------------------------------------------------|



---------------8------------------------------11--13-11-|
-------------8---11h8---------------------13------------|
---------10b----------10-10-8--------8------------------|
------------------------------10-10---------------------|
--------------------------------------------------------|
--8-----------------------------------------------------|



--13b-13b-13r-11-13-13-11--13-11-13b-13b--13-13r-11-13-13-11--|
--------------------------------------------------------------|
--------------------------------------------------------------|
--------------------------------------------------------------|
--------------------------------------------------------------|
--------------------------------------------------------------|



---16-15-13-------------------------------------11-----------------|
------------13/-6----8-9-11-8-9-8-----9-11-11b-----11~---13--16-13-|
------------------10--------------10-------------------------------|
-------------------------------------------------------------------|
-------------------------------------------------------------------|
-------------------------------------------------------------------|



------------------------------------------------------------|
--16r--13-16r--13-16r--13-18b-18b-18b-16-18b-18-18b-16-18b--|
------------------------------------------------------------|
------------------------------------------------------------|
------------------------------------------------------------|
------------------------------------------------------------|



---------------8----------------------------------------------------------------------------
--16---------8---11-8h11h8----8-------------------------------------------------------------
-----17---10b--------------10---10-8h10h8----8----------------------------------------------
------------------------------------------10---10-8h10h8----8-----------------------------8-
---------------------------------------------------------10---10-8h10h8----8---------8-10---
------------------------------------------------------------------------11---11-8-11--------



--------------------------------------------------------------------------------------|
--11~-11r-11----8------------------------------------------------------------------11-|
-------------11---11-10-8----8----8-------8-10-8-------10-8-------10--8----8-10/12----|
--------------------------10---10---10-10--------10-10------10-10-------10------------|
--------------------------------------------------------------------------------------|
--------------------------------------------------------------------------------------|



-----10-13-13b---13-10-13-13b13-10-12-10-------------------|
--11-------------------------------------11-11~-----9--11--|
-----------------------------------------------------------|
-----------------------------------------------------------|
-----------------------------------------------------------|
-----------------------------------------------------------|



--------11-------11-----13b-13b-13b-13~---13b-|
--11b-------11b-----11------------------------|
----------------------------------------------|
----------------------------------------------|
----------------------------------------------|
----------------------------------------------|



--11--------------8------------------------------11-13--11-|
-----13~--------8---11h8---------------------13------------|
-------------10b---------10r-10-8--------------------------|
----------------------------------10-10--------------------|
-----------------------------------------------------------|
-----------------------------------------------------------|



--13b-13b---13--13r-11-13-13-13b---13b-13b-13r-11b-|---------------------------|
-----------------------------------------------11b-|---------------------------|
---------------------------------------------------|--5------------------------|
---------------------------------------------------|--5------------------------|
---------------------------------------------------|--3------------------------|
---------------------------------------------------|---------------------------|



Get this song at amazon.com      Ebay     Ringtones Ringtones  


Learn to play: Songwriting, Piano, Harmonica, Guitar
Also available at Muzikum: Led Zeppelin - Since I've been loving you lyrics

Related Led Zeppelin Tabs

Black Country Woman Intro tabs
Bron Yr Aur Stomp tabs
Presence tabs
Carouselambra tabs
Since Ive Been Loving You Live tabs
The Lemon Song (intro) tabs
Trampled Underfoot tabs
Babe, I'm Gonna Leave You tabs
Black Dog (10000% Correct) tabs
Swan Song tabs
Black Dog Live tabs
Living Loving Maid (Shes Just A Woman) tabs
In The Evening Bass tabs
The Ocean (live Version) tabs
Ramblin Man tabs
American Woman tabs
Custed Pie tabs
Led Zeppelin 3 Album tabs
The Rover Solo tabs
The Girl I Love Bbc Sessions tabs


Guitar Tabs









All tabs are property and copyright of their owners. All tabs provided for educational purposes only. Privacy Policy, DMCA