Led Zeppelin

Since I've Been Loving You Bass Tabs



More from Led Zeppelin

Led Zeppelin Tabs
Led Zeppelin Chords
Led Zeppelin Bass
Led Zeppelin Lyrics




SINCE I'VE BEEN LOVING YOU

As recorded by Led Zepplin
(From the 1971 Album LED ZEPPELIN III)

Transcribed by Omnicurse
E-mail any questions to Omnicurse@hotmail.com


Intro
Slowly Q.=44
Cm
12/8
Gtr I
|-------------|---------------------|
|-------------|---------------------|
|-------------|---------10--------7-|
|-------------|------11------8-11---|


Fm Cm
|-------------------------|------------------------------|
|-------------10------8-9-|-10---(10)--8-----------------|
|-8---(8)--11------11-----|--------------10---(10)-------|
|-------------------------|------------------------11-10-|


Fm
|-------------------|-----------------------|----------------------|
|-------------------|-----------------------|--------------------8-|
|---------------7---|-8----(8)---8----(8)---|-8----(8)---8----10---|
|-8---10---11-------|----------8----------8-|----------8-----------|


Cm
|------------------------------|-----------------------|
|-10---(10)-8------------------|-----------------------|
|--------------10--10-10-10-10-|---------------------8-|
|------------------------------|-8------(8)---(8)-11---|


Gm
|---------------------------------|
|---------------------------------|
|-10---(10)--10-10---10-10----10--|
|--------------------------10-----|


Ab Fm
|--------------------------------|
|--------------------------------|
|-11--11-11-11--11-10-8---8--8-8-|
|--------------------------------|


Cm/EbG7/D Cm Eb7 D7 Dbmaj7
|------------------------|----------------------------||
|------------------------|----------------------------||
|------------------------|----------------------------||
|-11---10--10-8-8-8-11---|-10--10-10---9-9-9-9-9-9-9--||


1st Verse
Cm Fm Cm
|-------------------------|---------------------|----------------------|
|--------------10---------|-----------------8-9-|-10-------------------|
|-----------------------7-|-8------(8)---11-----|----------------8-10--|
|-8---8--8-8------11-11---|---------------------|---------8---11-------|


Fm
|------------------------|------------------------|--------------------------|
|-10------(10)--8--------|---------10-------------|------------8-------------|
|------------------------|-8---(8)------8---------|-8---(8)-11---8---(8)--10-|
|-----------------8-8-11-|------------8-----8--11-|--------------------------|


Cm
|-----------------|-----------------------------|
|-10--------------|-----------8-10---(10)--8----|
|---------10------|--------10----------------11-|
|-----------------|-8---11----------------------|


Gm
|--------------------------------|
|--------------------------------|
|-10---(10)--10-10--10-10-10-10--|
|--------------------------------|


Ab Fm Cm/EbG7/D Cm Eb
|-------------------------------|----------------------|
|-------------------------------|----------------------|
|-11--11-11-11--10-8--8s10-8--8-|----------------------|
|-------------------------------|-11---10---8--10-11---|


D7 Dbmaj7
|---------------------------------------------||
|---------------------------------------------||
|---------------------------------------------||
|-10-10-10-10-10-10-10-10-10--9-9-9-9-9-9-9-9-||


Cm Fm Cm
|-------------------------|---------------------------|----------------------|
|-----------7s8-10--------|--------8-10---------------|-10------(10)---------|
|--------10---------------|-8---11------8---(8)-10-11-|----------------10----|
|-8---11-------------8--8-|---------------------------|----------------------|


Fm
|----------------------|------------------------|
|----------------------|-------------------8h10-|
|----------------------|-8---(8)----8---11------|
|-8------(8)---(8)--11-|----------8-------------|


Cm
|----------------------|-------------------------------|
|----------------------|-10---8------------------------|
|-8------8---(8)-10-11-|--------11-10-10--8------------|
|----------------------|--------------------11-10-8-8--|


|-----------------------------------------------------|
|---------------------------9-8-9-10-10-10-9-8-10-----|
|-------------------------------------------------8-9-|
|-8-8-8-8-8-8-8-8-8-8-8-8-8---------------------------|


Gm
|-----------------------------------|
|-----------------------------------|
|-10s8-(8)s10-10----8-10---(10)--10-|
|----------------10-----------------|


Ab Fm Cm/EbG7/D Cm Eb7
|----------------------------|--------------------|
|----------------------------|--------------------|
|-11---(11)--10-8--8s10-8--8-|--------------------|
|----------------------------|-11---10---8---11---|


D7 Dbmaj7
|----------------------------------||
|----------------------------------||
|----------------------------------||
|-10-10-10-10-10---9-9-9-9-9-9-9---||


Guitar Solo
Cm Fm
|-------------------------|----------------------------|
|-------------10----------|------------10------------9-|
|--------9-10-------------|-8---(8)-11----8---(8)-11---|
|-8---11-----------8--8-8-|----------------------------|


Cm
|------------------------------|
|-10---(10)--------------------|
|------------10------------10--|
|---------------8---(8)-11-----|


|---------------------------------|
|-10--10-10-10-10-10--------------|
|-------------------------------7-|
|--------------------8---(8)-11---|


Fm
|----------------------------|---------------------------|
|----------------------------|---------------------------|
|-8-8-8-8-(8)---8-8-8-8------|-8-8-8-8------8-8-8-8-10---|
|-------------8---------8-11-|---------8-11--------------|


Cm
|--------------------------------|---------------------------------|
|-10--10-10-10--8----------------|-10--10-10-10--10----------------|
|-----------------10------8-9-10-|---------------------------------|
|--------------------8-11--------|------------------8-8-8-11-11-11-|


Gm
|-----------------------------------------------|
|-----------------------------------------------|
|-10--10-10--10-10-10-10-10-10-10-10-10-10-10---|
|-----------------------------------------------|


Ab Fm Cm/Eb G7/D Cm Eb7
|------------------------------|--------------------------------|
|------------------------------|--------------------------------|
|-11---(11)--10-8--8s10-8--8-8-|--------------------------------|
|------------------------------|-11--11-10--10-8--8-11-11-11-11-|


D7 Dbmaj7
|---------------------------------------------------||
|---------------------------------------------------||
|---------------------------------------------------||
|-10-10-10-10-10-10-10-10-10-10-9-9-9-9-9-9-9-9-9-9-||


3rd Verse
Cm Fm Cm
|--------------|----------------|--------------|
|--------------|----------------|--------------|
|-3------------|-9s8------------|--------------|
|--------------|----------------|-8------------|


Eb
|------------------------------------|
|------------------------------------|
|------------------------------------|
|-11--11-11-11-11-11-11-11-11-11-11--|


D Cm G7/D Cm/Eb Eb7
|-------------------------|-------------------------------|
|-------------------------|-------------------------------|
|-------------------------|-------------------------------|
|-9s10--10-10--10-10------|-8---10---11--11-11-11-(11)-11-|


D7 Dbmaj7
|----------------------------------------------------||
|----------------------------------------------------||
|----------------------------------------------------||
|-10-10-10-10-10-10-10-10-10-10-9-9-9-9-9-9-9-9-9-9--||


4th Verse
Cm Fm Cm
|---------------------------|-----------------------------|--------------|
|------10----7-----------10-|---------------------------8-|-10-----------|
|---------10---------10-----|-8--8-8-------8-------8-11---|--------------|
|-8--8---------8--11--------|---------8-11----8-11--------|---------8----|


C7 Fm
|---------------------|-----------------------------|----------------------|
|-----------8-10------|-----------------------------|----------------------|
|------7-10-----------|-10s8-(8)--(8)----8---(8)----|-8--8-8--8-8--8-8--8--|
|-8--8----------------|----------------8----------8-|----------------------|


Cm Gm
|---------------------|-------------------------|-----------------------------|
|---------------------|-------------------------|-----------------------------|
|---------8-9-10------|------------8----------8-|-10------(10)-10-10-10-10-10-|
|-8--8-11-------------|-8--8-8--11---8-8-8-11---|-----------------------------|


Ab Fm Cm/EbG7/D Cm Eb7
|----------------------------|------------------------|
|----------------------------|------------------------|
|-11---(11)--10-8--8s10-8--8-|------------------------|
|----------------------------|-11---10---8--11-(11)---|


D7 Dbmaj7
|-----------------------------------------------------|
|-----------------------------------------------------|
|-----------------------------------------------------|
|-10-10-10-10-10-10-10-10-10-10-9-9-9-9-9-9-9-9-9-9---|


Ab
|---------------------------------------------|
|---------------------------------------------|
|-11--11-11--11-11-11-11-11-11-11-11-11-11-11-|
|---------------------------------------------|


Fm
|------------------------------------------|
|------------------------------------------|
|-8-8-8-8-8-8-8-8-8-8-8-8-8-8-8-8-8-8-8-8--|
|------------------------------------------|


Cm/EbG7/D Cm Eb7 D7 Dbmaj7
|--------------------|------------------------------------|
|--------------------|------------------------------------|
|--------------------|------------------------------------|
|-11---10---8---11---|-10-10-10-10-10--10-9-9-9-9-9--(9)-|


Cm
|--------------|--------*|
|--------------|--------*|
|--------------|--------*|
|-8------------|-(8)----*|




Since I've Been Loving You
(Jones/Page/Plant)

Working from seven to eleven every night,
It really makes life a drag, I don't think that's right.
I've really, really been the best of fools, I did what I could.
'Cause I love you, baby, How I love you, darling, How I love you, baby,
How I love you, girl, little girl.
But baby, Since I've Been Loving You. I'm about to lose my worried mind, oh,
yeah.

Everybody trying to tell me that you didn't mean me no good.
I've been trying, Lord, let me tell you, Let me tell you I really did the best
I could.
I've been working from seven to eleven every night, I said It kinda makes
my life a drag.
Lord, that ain't right...
Since I've Been Loving You, I'm about to lose my worried mind.

Said I've been crying, my tears they fell like rain,
Don't you hear, Don't you hear them falling,
Don't you hear, Don't you hear them falling.

Do you remember mama, when I knocked upon your door?
I said you had the nerve to tell me you didn't want me no more, yeah
I open my front door, hear my back door slam,
You must have one of them new fangled back door man.

I've been working from seven, seven, seven, to eleven every night, It kinda
makes my life a drag...
Baby, Since I've Been Loving You, I'm about to lose, I'm about lose to my worried
mind



Get this song at amazon.com      Ebay     Ringtones Ringtones  


Learn to play: Songwriting, Piano, Harmonica, Guitar
Also available at Muzikum: Led Zeppelin - Since I've been loving you lyrics

Related Led Zeppelin Bass Tabs

I Cant Quit You Baby bass
Stairway To Heaven Intro bass
Lemon Song bass
Babe, I'm Gonna Leave You bass
For Your Life bass
The Ocean bass
The Rain Song bass
Hey Hey What Can I Do bass
Houses Of The Holy bass
Nobody's Fault But Mine bass
How Many More Times bass
All My Love bass
Dazed And Confuzed bass
Moby Dick bass
Thank You bass
White Summer/black Mountain Side bass
Black Country Woman bass
In My Time Of Dying bass
Misty Mountain bass
You Shook Me bass


Guitar Tabs









All tabs are property and copyright of their owners. All tabs provided for educational purposes only. Privacy Policy, DMCA