Led Zeppelin

Since I Tabs



More from Led Zeppelin

Led Zeppelin Tabs
Led Zeppelin Chords
Led Zeppelin Bass
Led Zeppelin Lyrics




Tuning: standard
| / slide up
| \ slide down
| h hammer-on
| p pull-off



e|----8------------|-----11--10-8-10-11-10-8---10-8------------|
B|-8----11--811/13|--11---------------------9------9-9-9p8----|
G|-----------------|----------------------------------------10-|
D|-----------------|-------------------------------------------|
A|-----------------|-------------------------------------------|
E|-----------------|-------------------------------------------|

e|-------------------------------|---------------------------------|
B|-------------------------------|---------------------------------|
G|-7h8-107h8--------------------|-8\7----7-8-10-10/12-(12)(12)(12)|
D|------------10-8----------8/10-|-----10--------------------------|
A|-----------------10-8\6--------|---------------------------------|
E|------------------------8------|---------------------------------|

e|-11-13-15p13p11-(13)-------|-13h15-11-13-15p13p11-(13)------|
B|---------------------13-13-|--------------------------13-13-|
G|---------------------------|--------------------------------|
D|---------------------------|--------------------------------|
A|---------------------------|--------------------------------|
E|---------------------------|--------------------------------|

e|-----------|------8----------------------------------------------|
B|-8/11------|--7/8---11-8-----------------------------------------|
G|------10/12|-------------11p10p8-------8p7----------8p7----------|
D|-----------|---------------------10-10-----10-8-8-8-----10-8-8-8-|
A|-----------|-----------------------------------------------------|
E|-----------|-----------------------------------------------------|

e|------------------------------------------11-13-13/15~-15-15-13-|
B|------------------------------11-13-13p11-----------------------|
G|-8p7----7-8-10-10/12-(12)(12)-----------------------------------|
D|-----10---------------------------------------------------------|
A|----------------------------------------------------------------|
E|----------------------------------------------------------------|

Here is where it gets a little bit faster and louder
e|--------------------------------10-13-15-15-15---|
B|-11p8---8h11p8----8-8--------11------------------|
G|-----10--------10------10/12---------------------|
D|-------------------------------------------------|
A|-------------------------------------------------|
E|-------------------------------------------------|

e|------------11-------11---13/15--13/15-13-13-15-11----|
B|-9-11-11/13----11/13---11--------------------------13-|
G|------------------------------------------------------|
D|------------------------------------------------------|
A|------------------------------------------------------|
E|------------------------------------------------------|

e|--------------------------------------|
B|--------------------------------------|
G|-------5--0-5/7--5-------5--0-5/7--5--|
D|-6--5---------------5--4--------------|intro end
A|--------------------------------------|
E|-5--4---------------4--3--------------|



Get this song at amazon.com      Ebay     Ringtones Ringtones  


Learn to play: Songwriting, Piano, Harmonica, Guitar
More Led Zeppelin lyrics available at Muzikum

Related Led Zeppelin Tabs

Trampled Underfoot Bass tabs
Tangerine tabs
Poor Tom tabs
As Long As I Have You Live tabs
Tangerine Solo tabs
Four Sticks Bass tabs
Rock And Roll tabs
Lz Time Of Dying tabs
Battle Of Evermore tabs
The Battle Of Evermore tabs
Living Loving Maid tabs
South Bound Saurez tabs
Stairway To Heaven Solo tabs
Walters Walk Intro tabs
Moby Dick tabs
Rock & Roll tabs
Babe In Gonna Leave You tabs
Sick Again tabs
The Ocean (live At Madison Square Garden) tabs
Black Country Woman Intro tabs


Guitar Tabs









All tabs are property and copyright of their owners. All tabs provided for educational purposes only. Privacy Policy, DMCA

Online converter - videoconverter.com