Led Zeppelin

Royal Orleans (complete) Bass Tabs



More from Led Zeppelin

Led Zeppelin Tabs
Led Zeppelin Chords
Led Zeppelin Bass
Led Zeppelin Lyrics




JPJ!

G :-------------------------|-------------------|-------------------------|
D :-------------------------|5-4-2--------------|-------------------------|
A :------0--------0--------0|------3-4-0*-------|------0--------0--------0|
E :0-2-3----0-2-3----0-2-3--|-------------------|0-2-3----0-2-3----0-2-3--|

G :-------------------|-------------------|-------------------|
D :5-4-2--------------|-------------------|-------------------|
A :------3-4-0*-------|9-7-7-7-7-5*------5|9-7-7-7-7-5*-------|
E :-------------------|--0----------------|-------------------|

G :-------------------|-------------------|-------------------|
D :-------------------|-------------------|-------------------|
A :9-7-7-7-7-5*------5|9-7-7-7-7-5*-------|9-7-7-7-7-5*------5|
E :--0----------------|-------------------|--0----------------|

G :-------------------|-------------------|-------------------|
D :-------------------|-------------------|-------------------|
A :9-7-7-7-7-5*-------|9-7-7-7-7-5*------5|9-7-7-7-7-5*-------|
E :-------------------|--0----------------|-------------------|

G :-------------------------|-------------------|-------------------------|
D :-------------------------|5-4-2--------------|-------------------------|
A :------0--------0--------0|------3-4-0*-------|------0--------0--------0|
E :0-2-3----0-2-3----0-2-3--|-------------------|0-2-3----0-2-3----0-2-3--|

G :-------------------|-------------------|-------------------|
D :5-4-2--------------|-------------------|-------------------|
A :------3-4-0*-------|9-7-7-7-7-5*------5|9-7-7-7-7-5*-------|
E :-------------------|--0----------------|-------------------|

G :-------------------|-------------------|-------------------|
D :-------------------|-------------------|-------------------|
A :9-7-7-7-7-5*------5|9-7-7-7-7-5*-------|9-7-7-7-7-5*------5|
E :--0----------------|-------------------|--0----------------|

G :-------------------|-------------------|-------------------|
D :-------------------|-------------------|-------------------|
A :9-7-7-7-7-5*-------|9-7-7-7-7-5*------5|9-7-7-7-7-5*-------|
E :-------------------|--0----------------|-------------------|

G :-------------------------|-------------------|-------------------------|
D :-------------------------|5-4-2--------------|-------------------------|
A :------0--------0--------0|------3-4-0*-------|------0--------0--------0|
E :0-2-3----0-2-3----0-2-3--|-------------------|0-2-3----0-2-3----0-2-3--|

G :-------------------|-------------------------|-------------------|
D :5-4-2--------------|-------------------------|5-4-2--------------|
A :------3-4-0*-------|------0--------0--------0|------3-4-0*-------|
E :-------------------|0-2-3----0-2-3----0-2-3--|-------------------|

G :-------------------------|-------------------|-------------------|
D :-------------------------|5-4-2--------------|-------------------|
A :------0--------0--------0|------3-4-0*-------|9-7-7-7-7-5*------5|
E :0-2-3----0-2-3----0-2-3--|-------------------|--0----------------|

G :-------------------|-------------------|-------------------|
D :-------------------|-------------------|-------------------|
A :9-7-7-7-7-5*-------|9-7-7-7-7-5*------5|9-7-7-7-7-5*-------|
E :-------------------|--0----------------|-------------------|

G :-------------------|-------------------|-------------------|
D :-------------------|-------------------|-------------------|
A :9-7-7-7-7-5*------5|9-7-7-7-7-5*-------|9-7-7-7-7-5*------5|
E :--0----------------|-------------------|--0----------------|

G :-------------------|-------------------|-------------------|
D :-------------------|4---4-4-4-2*-------|6---4-4-4-2*------4|
A :9-7-7-7-7-5*-------|-------------------|-------------------|
E :-------------------|--2----------------|--2----------------|

G :-------------------|-------------------|-------------------|
D :6---4-4-4-2*------4|6-4-4-------------4|6---4-4-4-2*------4|
A :-------------------|------4-6-7*-------|-------------------|
E :--2----------------|-------------------|--2----------------|

G :------------------|-------------------|------------------|
D :6-4---------------|6---4-4-4-2*------4|6-4---------------|
A :-----4-6-7*-------|-------------------|-----4-6-7*-------|
E :------------------|--2----------------|------------------|

G :-------------------------|-------------------|-------------------------|
D :-------------------------|5-4-2--------------|-------------------------|
A :------0--------0--------0|------3-4-0*-------|------0--------0--------0|
E :0-2-3----0-2-3----0-2-3--|-------------------|0-2-3----0-2-3----0-2-3--|

G :-------------------|--------------------|----------------------|
D :5-4-2--------------|4----2-0-0-0-------0|4-2-2-2-2-0*---------0|
A :------3-4-0*-------|-----------------0--|-------------------0--|
E :-------------------|--0----------0-2----|---------------0-2----|

G :-----------------|--------------------|--------------------|
D :4----2-0-0-0----0|4-2-2-2-2-0*-------0|4----2-0-0-0-------0|
A :--------------0--|-----------------0--|-----------------0--|
E :--0--------------|--------------------|--0----------0-2----|

G :----------------------|--------------------|-------------------|
D :4-2-2-2-2-0*---------0|4----2-0-0-0-------0|4-2-2-2-2-0*-------|
A :-------------------0--|-----------------0--|-------------------|
E :---------------0-2----|--0----------0-2----|-------------------|

G :--------|
D :--------|
A :--------|
E :--------|

G :-------------------|-------------------|-------------------|
D :-------------------|-------------------|-------------------|
A :9---7-7-7-5*------7|9-7-7-7-4-5*-------|9-7-7-7-7-5*------7|
E :--0----------------|-------------------|-------------------|

G :-------------------------|-------------------|-------------------|
D :-------------------------|-------------------|-------------------|
A :9---7-7-7-5-5-4-4-5-5-7-7|9---7-7-7-5*------7|9-7-7-7-4-5*-------|
E :--0----------------------|--0----------------|-------------------|

G :-------------------|-------------------------|-------------------|
D :-------------------|-------------------------|-------------------|
A :9-7-7-7-7-5*------7|9---7-7-7-5-5-4-4-5-5-7-7|9---7-7-7-5*------7|
E :-------------------|--0----------------------|--0----------------|

G :-------------------|-------------------|-------------------------|
D :-------------------|-------------------|-------------------------|
A :9-7-7-7-4-5*-------|9-7-7-7-7-5*------7|9---7-7-7-5-5-4-4-5-5-7-7|
E :-------------------|-------------------|--0----------------------|

G :-------------------|-------------------|-------------------|
D :-------------------|-------------------|-------------------|
A :9---7-7-7-5*------7|9-7-7-7-4-5*-------|9-7-7-7-7-5*------7|
E :--0----------------|-------------------|-------------------|

G :-------------------------|-------------------------|-------------------|
D :-------------------------|-------------------------|5-4-2--------------|
A :9---7-7-7-5-5-4-4-5-5-7-7|------0--------0--------0|------3-4-0*-------|
E :--0----------------------|0-2-3----0-2-3----0-2-3--|-------------------|

G :-------------------------|-------------------|
D :-------------------------|5-4-2--------------|
A :------0--------0--------0|------3-4-0*-------|
E :0-2-3----0-2-3----0-2-3--|-------------------|



Get this song at amazon.com      Ebay     Ringtones Ringtones  


Learn to play: Songwriting, Piano, Harmonica, Guitar
More Led Zeppelin lyrics available at Muzikum

Related Led Zeppelin Bass Tabs

For Your Life bass
Im Gonna Crawl bass
Immigration Song bass
Down By The Seaside bass
Rock And Roll(studio Version) bass
Achelles Last Stand bass
Gallows Pole bass
Trampeled Underfoot bass
Babe, Im Going To Leave You bass
Black Dog(100% Correct) bass
Custard Pie bass
Heartbreaker bass
Nobodys Fault But Mine bass
In The Evening bass
Street corner girl bass
In The Light 4 String bass
We're Gonna Groove bass
What Is And What Should Never Be bass
Misty Mountain bass
Tangerine bass


Guitar Tabs









All tabs are property and copyright of their owners. All tabs provided for educational purposes only. Privacy Policy, DMCA