Led Zeppelin

Rock & Roll Bass Tabs



More from Led Zeppelin

Led Zeppelin Tabs
Led Zeppelin Chords
Led Zeppelin Bass
Led Zeppelin Lyrics




Led Zeppelin
Rock & Roll
From 'Led Zeppelin IV' (1971)



W W W
G||-------------------|-------------------|-------------------|
D||-------------------|-------------------|-------------------|
A||-------------------|-------------------|-------------------|
E||-------------------|-------------------|-------------------|


E E E E E E E E E E E E E E E E
--------------------------|--------------------------|
--------------------------|--------------------------|
--------------------------|--------------------------|
-----5--5--5--5--5--5--5--|--5--5--5--5--5--5--5--5--|


E E E E E E E E E E E E E E E E
|--------------------------|--------------------------|
|--------------------------|--------------------------|
|--------------------------|--------------------------|
|--5--5--5--5--5--5--5--5--|--5--5--5--5--5--5--5--5--|


E E E E E E E E Q. E E E E E E E E E E E E E
|--------------------------|------------------------|--------------------------|
|--------------------------|------------------------|--------------------------|
|--3--5--5--5--5--5--5--5--|--5------5--5--5--5--5--|--------------------------|
|--------------------------|------------------------|--3--5--5--5--5--5--5--5--|


E E E E E E E E E E E E E E E E
|--------------------------|--------------------------|
|--------------------------|--------------------------|
|--------------------------|--5--7--7--7--7--7--7--7--|
|--5--5--5--5--5--5--5--5--|--------------------------|


E E E E E E E E E E E E E E E E
|--------------------------|--------------------------|
|--------------------------|--------------------------|
|--5--7--7--7--7--7--7--7--|--------------------------|
|--------------------------|--3--5--5--5--5--5--5--5--|


E E E E E E E E E E E E E E E E
|--------------------------|--------------------------|
|--------------------------|--------------------------|
|--------------------------|--------------------------|
|--5--5--5--5--5--5--0--3--|--3--5--5--5--5--5--5--5--|


E E E E E E E E E E E E E E E E E E E Q Q.
|--------------------------|--------------------------|-----------------------|
|--------------------------|--------------------------|-----------------------|
|--------------------------|--------------------------|-----------------------|
|--3--5--5--5--5--5--5--5--|--3--5--5--5--3--5--5--5--|--3--5--3--5----3------|


E E E E E E E E E E E E E E E E
|--------------------------|--------------------------|
|--------------------------|--------------------------|
|--------------------------|--------------------------|
|--3--5--5--5--5--5--5--5--|--3--5--5--5--5--5--5--5--|


E E E E E E E E E E E Q Q. E E E E E E E E
|--------------------------|-----------------------|--------------------------|
|--------------------------|-----------------------|--------------------------|
|--------------------------|-----------------------|--3--5--5--5--5--5--5--5--|
|--3--5--5--5--5--5--5--5--|--3--5--3--5----3------|--------------------------|


E E E E E E E E E E E E E E E E
|--------------------------|--------------------------|
|--------------------------|--------------------------|
|--3--5--5--5--5--5--5--5--|--3--5--5--5--5--5--5--5--|
|--------------------------|--------------------------|


E E E E E E E E E E E E E E E E
|--------------------------|--------------------------|
|--------------------------|--------------------------|
|--3--5--5--3--5--5--3--3--|--------------------------|
|--------------------------|--3--5--5--5--5--5--5--5--|


E E E E E E E E E E E E E E E E E E E Q E Q
|--------------------------|--------------------------|-------------------------|
|--------------------------|--------------------------|-------------------------|
|--------------------------|--------------------------|-------------------------|
|--3--5--5--5--5--5--5--5--|--3--5--5--5--5--5--5--5--|--3--5--3--5----3p--0----|


E E E E E E E E E E E E E E E E E H Q E
|--------------------------|--------------------------|----------------------|
|--------------------------|--------------------------|----------------------|
|--5--7--7--7--7--7--7--7--|--5--7--7--7--7--7--6--6--|--5-------------------|
|--------------------------|--------------------------|----------------------|


W E E E E E E E E E E E E E E E E
|-------------------|--------------------------|--------------------------|
|-------------------|--------------------------|--------------------------|
|-------------------|--------------------------|--------------------------|
|-------------------|--5--5--5--5--5--5--5--5--|--5--5--5--5--5--5--5--5--|


E E E E E E E E E E E E E E E E
|--------------------------|--------------------------|
|--------------------------|--------------------------|
|--------------------------|--------------------------|
|--5--5--5--5--5--5--5--5--|--5--3--3--3--2--2--0--0--|


E E E E E E E E E E E E E E E E
|--------------------------|--------------------------|
|--------------------------|--------------------------|
|--------------------------|--------------------------|
|--3--5--5--5--5--5--5--5--|--3--5--5--5--5--5--5--5--|


E E E E E E E E E E E Q Q. E E E E E E E E
|--------------------------|-----------------------|--------------------------|
|--------------------------|-----------------------|--------------------------|
|--------------------------|-----------------------|--------------------------|
|--3--5--5--5--3--5--5--5--|--3--5--3--5----3------|--3--5--5--5--5--5--5--5--|


E E E E E E E E E E E E E E E E E E E Q Q.
|--------------------------|--------------------------|-----------------------|
|--------------------------|--------------------------|-----------------------|
|--------------------------|--------------------------|-----------------------|
|--3--5--5--5--5--5--5--5--|--3--5--5--5--5--5--5--5--|--3--5--3--5----3------|


E E E E E E E E E E E E E E E E
|--------------------------|--------------------------|
|--------------------------|--------------------------|
|--3--5--5--5--5--5--5--5--|--3--5--5--5--5--5--5--5--|
|--------------------------|--------------------------|


E E E E E E E E E E E E E E E E
|--------------------------|--------------------------|
|--------------------------|--------------------------|
|--3--5--5--5--5--5--5--5--|--3--5--5--3--5--5--3--3--|
|--------------------------|--------------------------|


E E E E E E E E E E E E E E E E
|--------------------------|--------------------------|
|--------------------------|--------------------------|
|--------------------------|--------------------------|
|--3--5--5--5--5--5--5--5--|--3--5--5--5--5--5--5--5--|


E E E E E E E E E E E Q E Q E E E E E E E E
|--------------------------|-------------------------|--------------------------|
|--------------------------|-------------------------|--------------------------|
|--------------------------|-------------------------|--5--7--7--7--7--7--7--7--|
|--3--5--5--5--5--5--5--5--|--3--5--3--5----3p--0----|--------------------------|


E E E E E E E E E H Q E W
|--------------------------|----------------------|-------------------|
|--------------------------|----------------------|-------------------|
|--5--7--7--7--7--7--6--6--|--5-------------------|-------------------|
|--------------------------|----------------------|-------------------|


E E E E E E E E E E E E E E E E E E E E E Q E
|--------------------------|--------------------------|-------------------------|
|--------------------------|--------------------------|-------------------------|
|--------------------------|--------------------------|-----------------4----5--|
|--5--5--5--5--5--5--5--5--|--3--5--5--5--5--0--1--3--|--5--5--5--5--5----------|


Q Q. E E E E E E E E E E E E E E E E E E E
|-----------------------|--------------------------|--------------------------|
|-----------------------|--------------------------|--------------------------|
|--6----7---------------|--------------------------|--------------------------|
|--------------0--0--0--|--3--5--5--5--3--3--2--0--|--5--5--5--5--5--0--2--0--|


E E E E E E E E E E E E E E E E
|--------------------------|--------------------------|
|--------------------------|--------------------------|
|--------------------------|--------------------------|
|--5--5--5--5--5--0--2--3--|--5--5--5--5--5--5--5--5--|


E E E E E E E E E E E E E E E E
|--------------------------|--------------------------|
|--------------------------|--------------------------|
|--3--5--5--5--5--5--5--5--|--3--5--5--5--5--5--5--5--|
|--------------------------|--------------------------|


E E E E E E E E E E E E E E E E
|--------------------------|--------------------------|
|--------------------------|--------------------------|
|--0--0--0--0--0-----------|--0--0--0--0--0--0--4--5--|
|-----------------0--2--3--|--------------------------|


E E E E E E E E Q Q Q E S S E E E E E E E E
|--------------------------|------------------------|--------------------------|
|--------------------------|------------------------|--------------------------|
|--7--7--7--7--7-----7--7--|--5----5----5-----------|--------------------------|
|-----------------7--------|-----------------0--2-3-|--5--5--5--5--5--5--5--5--|


E E Q Q E E Q Q E E E E E E E E E E E E
|------------------------|------------------------|--------------------------|
|--5--4--2----0----------|------------------------|--------------------------|
|------------------2--0--|------------------------|--------------------------|
|------------------------|--5----5----5--0--2--3--|--3--5--5--5--5--5--5--5--|


E E E E E E E E E E Q. Q. E E E E E E E E
|--------------------------|----------------------|--------------------------|
|--------------------------|----------------------|--------------------------|
|--------------------------|----------------------|--------------------------|
|--3--5--5--5--5--5--5--5--|--3--5--5------5------|--3--5--5--5--5--5--5--5--|


E E E E E E E E E E E E E E E E
|--------------------------|--------------------------|
|--------------------------|--------------------------|
|--------------------------|--------------------------|
|--3--5--5--5--5--5--5--5--|--3--5--5--5--5--5--5--5--|


E E E E E E E E E E E E E E E E
|--------------------------|--------------------------|
|--------------------------|--------------------------|
|--------------------------|--3--5--5--5--5--5--5--5--|
|--3--3--3--3--5--5--3--3--|--------------------------|


E E E E E E E E E E E E E E E E E E E E Q Q
|--------------------------|--------------------------|------------------------|
|--------------------------|--------------------------|------------------------|
|--3--5--5--5--5--5--5--5--|--3--5--5--5--5--5--5--5--|--5--5--5--3--5----3----|
|--------------------------|--------------------------|------------------------|


E E E E E E E E E E E E E E E E
|--------------------------|--------------------------|
|--------------------------|--------------------------|
|--------------------------|--------------------------|
|--3--5--5--5--5--5--5--5--|--3--5--5--5--5--5--5--5--|


E E E E E E E E E E E E Q Q E E E E E E E E
|--------------------------|------------------------|--------------------------|
|--------------------------|------------------------|--------------------------|
|--------------------------|------------------------|--5--7--7--7--7--7--7--7--|
|--3--3--3--3--5--5--3--3--|--3--5-----3--5----3----|--------------------------|


E E E E E E E E E H Q E W
|--------------------------|----------------------|-------------------|
|--------------------------|----------------------|-------------------|
|--7-----7-----7-----7--6--|--5-------------------|-------------------|
|-----7-----7-----7--------|----------------------|-------------------|


E E E E E E E E E E E E E E E E
|--------------------------|--------------------------|
|--------------------------|--------------------------|
|--------------------------|--------------------------|
|--5--5--5--5--5--5--5--5--|--5--5--5--3--3--2--2--0--|


E E E E E E E E E E E E E E E E
|--------------------------|--------------------------|
|--------------------------|--------------------------|
|--------------------------|--------------------------|
|--5--5--5--5--5--5--5--0--|--2--0--3--0--2--0--2--3--|


E E E E E E E E E E E E E E E E
|--------------------------|--------------------------|
|--------------------------|--------------------------|
|--------------------------|--------------------------|
|--5--5--5--5--5--5--5--5--|--3--5--5--5--5--5--5--5--|


E E E E E E E E E E E E E E E E
|--------------------------|--------------------------|
|--------------------------|--------------------------|
|--------------------------|--------------------------|
|--3--5--5--5--5--5--5--5--|--5--5--5--3--5--5--3--0--|


E E E E E E E E E E E E E E E E
|--------------------------|--------------------------|
|--------------------------|--------------------------|
|--------------------------|--------------------------|
|--5--5--5--5--5--5--5--5--|--3--5--5--5--5--5--5--5--|


E E E E E E E E E E E E E E E E
|--------------------------|--------------------------|
|--------------------------|--------------------------|
|--------------------------|--------------------------|
|--3--5--5--5--5--5--5--5--|--5--5--5--3--5--5--3--0--|


E E E E E E E E E E E E E E E E
|--------------------------|--------------------------|
|--------------------------|--------------------------|
|--3--5--5--5--5--5--5--5--|--3--5--5--5--5--5--5--5--|
|--------------------------|--------------------------|


E E E E E E E E E E E E E E Q E E Q Q E E
|--------------------------|-------------------------|------------------------|
|--------------------------|-------------------------|------------------------|
|--3--5--5--5--5--5--5--5--|--5--5--5--3--5--3-------|------------------------|
|--------------------------|--------------------3----|--3--5--5----5----5--5--|


E E E E E E E E E E E E E E E E E E E E Q Q
|--------------------------|--------------------------|------------------------|
|--------------------------|--------------------------|------------------------|
|--------------------------|--------------------------|------------------------|
|--3--5--5--5--5--5--5--5--|--3--5--5--5--5--5--5--5--|--5--5--5--3--5----3----|


E E E E E E E E E E E E E E E E E H Q E
|--------------------------|--------------------------|----------------------|
|--------------------------|--------------------------|----------------------|
|--5--7--7--7--7--7--7--7--|--7--7--7--7--7--7--7--7--|--5-------------------|
|--------------------------|--------------------------|----------------------|


W E E E E E E E E E E E E E E E E
|-------------------|--------------------------|--------------------------|
|-------------------|--------------------------|--------------------------|
|-------------------|--------------------------|--------------------------|
|-------------------|--3--5--5--5--5--5--5--5--|--5--5--5--5--5--5--5--5--|


E E E E E E E E E E E E E E E E
|--------------------------|--------------------------|
|--------------------------|--------4--4--5--5--6--6--|
|--------4--4--5--5--6--6--|--7--7--------------------|
|--3--5--------------------|--------------------------|


E E E E E E E E E E E E E E E E
|--------------------------|--------------------------|
|--7-----------------------|--------------------------|
|--------------------------|--------------------------|
|-----5--5--5--5--5--5--5--|--3--5--5--5--5--5--5--5--|


E E E E E E E E E E E E E E E E
|--------------------------|--------------------------|
|--------------------------|--------------------------|
|--------------------------|--------------------------|
|--3--5--5--5--5--5--5--5--|--5--5--5--5--5--0--2--3--|


E E E E E E E E E E E E E E E E
|--------------------------|--------------------------|
|--------------------------|--------------------------|
|--------------------------|--------------------------|
|--3--5--5--5--5--5--5--5--|--3--5--5--5--5--5--5--5--|


E E E E E E E E E E E E E E E E
|--------------------------|--------------------------|
|--------------------------|--------------------------|
|--------------0--0--1--1--|--1--1--2--2--3--3--4--4--|
|--3--5--5--5--------------|--------------------------|


E E E E E E E E E E E E E E E E
|--------------------------|--------------------------|
|--------------------------|--------------------------|
|--3--5--5--5--5--5--5--5--|--5--5--5--5--5--5--5--5--|
|--------------------------|--------------------------|


E E E E E E E E E E E E E E E E
|--------------------------|--------------------------|
|--------------------------|--------------------------|
|--5--5--5--5--5--5--5--5--|--5--5--5--5--5--5--3-----|
|--------------------------|-----------------------0--|


E E E E E E E E E E E E E E E E
|--------------------------|--------------------------|
|--------------------------|--------------------------|
|--------------------------|--------------------------|
|--5--5--5--3--3--3--4--4--|--5--5--5--5--5--5--5--0--|


E E E E E E E E E E E E E E E E
|--------------------------|--------------------------|
|--------------------------|--------------------------|
|--------------------------|--------------------------|
|--3--5--5--5--5--5--5--5--|--5--5--5--5--5--5--5--5--|


E E E E E E E E E E E E E E E E E H Q E
|--------------------------|--------------------------|----------------------|
|--------------------------|--------------------------|----------------------|
|--------------------------|--------------------------|--5-------------------|
|--0--0--4--4--4--4--0--0--|--0--0--0--0--0--0--0--0--|----------------------|


W W W W
|-------------------|-------------------|-------------------|-------------------|
|-------------------|-------------------|-------------------|-------------------|
|-------------------|-------------------|-------------------|-------------------|
|-------------------|-------------------|-------------------|-------------------|


W W W. W
|-------------------|-------------------|-------------------|-------------------|
|-------------------|-------------------|-------------------|-------------------|
|-------------------|-------------------|-------------------|-------------------|
|-------------------|-------------------|-------------------|-------------------|


Q Q H
|---------------------||
|---------------------||
|---------------------||
|--5------------------||

- Jake Calhoun 4/3/06



Get this song at amazon.com      Ebay     Ringtones Ringtones  


Learn to play: Songwriting, Piano, Harmonica, Guitar
More Led Zeppelin lyrics available at Muzikum

Related Led Zeppelin Bass Tabs

Thats The Way bass
When The Levee Breaks bass
Baby Come On Home bass
Out On The Tiles (complete) bass
Sick Again bass
Good Times Bad Times bass
Trampeled Underfoot bass
Babe, Im Going To Leave You bass
Black Dog (tabbed From Notes) bass
The Rover bass
D'yer Mak'er (complete) bass
We're Gonna Groove bass
Babe Im Gonna Leave You bass
No Quarter bass
Celebration Day bass
Royal Orleans (complete) bass
Babe, I'm Gonna Leave You bass
Four Sticks bass
Misty Mountain bass
The Rain Song bass


Guitar Tabs









All tabs are property and copyright of their owners. All tabs provided for educational purposes only. Privacy Policy, DMCA