Led Zeppelin

Rock And Roll Tabs



More from Led Zeppelin

Led Zeppelin Tabs
Led Zeppelin Chords
Led Zeppelin Bass
Led Zeppelin Lyrics

Rock And Roll

Led Zeppelin

Led Zeppelin IV



Instrument: 6 String Guitar

Standard Tuning

italynlprkn





Hey, this is one of the greatest songs of all time by Led Zeppelin.

In terms of Led Zeppelin, (in my opinion)this song is only second to Kashmir.

These are only the main parts, I left the solo out. Besides, the main part is

heard pretty loudly over the solo anyway.



p = pull off

b(1/4) = quick quarter step bend



IF YOU RATED IT PLEASE TELL ME WHY AND WHAT YOU

RATED IT IN THE CORRECTIONS!!!



-Intro 1

E |----------------|----------------||

B |----------------|----------------||

G |----------------|----------------||

D |2---2-5-2-4----2|-2-2-4-2-2-2-4-2||

A |0-4-0-0-0-0-3b-0|-0-0-0-0-0-0-0-0||

E |----------------|----------------||



-Intro 2

E |----------------|----------------||

B |----------------|----------------||

G |2---2-5-2-4----2|-2-2-4-2-2-2-4-2||

D |0-4-0-0-0-0-3b-0|-0-0-0-0-0-0-0-0||

A |----------------|----------------||

E |----------------|----------------||



-Intro 3

E |----------------|----------------||

B |----------------|----------------||

G |----------------|----------------||

D |----------------|----------------||

A |2---2-5-2-4----2|-2-2-4-2-2-2-4-2||

E |0-4-0-0-0-0-3b-0|-0-0-0-0-0-0-0-0||



-Verse

E |-------|-------|-------|----------------||

B |-------|-------|-------|----------------||

G |----2--|----2--|----2--|----2-----2-----||x2

D |----2--|----2--|----2--|----2-----2-----||

A |----0--|----0--|----0--|----0-----0-----||

E |-3b----|-3b----|-3b----|-3b----3b----3p0||





E |-------|-------|-------|----------------||

B |----3--|----3--|----3--|----3-----3-----||

G |----2--|----2--|----2--|----2-----2-----||

D |----0--|----0--|----0--|----0-----0-----||

A |-3b----|-3b----|-3b----|-3b----3b----3p0||

E |-------|-------|-------|----------------||



E |-------|-------|-------|----------------||

B |-------|-------|-------|----------------||

G |----2--|----2--|----2--|----2-----2-----||

D |----2--|----2--|----2--|----2-----2-----||

A |----0--|----0--|----0--|----0-----0-----||

E |-3b----|-3b----|-3b----|-3b----3b----3p0||



-Chorus

E |-----------------------| |-----||

B |-----------------------| |-----||

G |-----------------------|x4|--7--||

D |9--9--11-9--9--9--11-9-| |--7--||

A |7--7--7--7--7--7--7--7-| |--5--||

E |0--0--0--0--0--0--0--0-| |-----||



-End

E |---||

B |---||

G |-2-||

D |-2-||

A |-0-||

E |---||





Starts with Drums

Intro 1 x2 (starts on upbeat)

Intro 2 x1

Intro 1 x1

Intro 3 x1

Intro 1 x1

Verse x1

Chorus x1

Intro 1 x2

Verse x1

Chorus x1

Intro 1 x4

Intro 2 x1

Intro 1 x1

Intro 3 x1

Intro 1 x1

Verse x1

Chorus x1

Intro 1 x2

Verse x1

Chorus x1

Intro 1 x8

End x1



Get this song at amazon.com      Ebay     Ringtones Ringtones  


Learn to play: Songwriting, Piano, Harmonica, Guitar
Also available at Muzikum: Led Zeppelin - Rock and roll lyrics

Related Led Zeppelin Tabs

Most High tabs
Im Gonna Crawl tabs
Hey Lady tabs
What Is And What Should tabs
Thats The Way Live tabs
Wearing And Tearing Bass tabs
Physical Graffiti Disc 1 tabs
Bron Y Aur Stomp2 tabs
Dancing Days tabs
Babe Im Gonna Leave You Tab tabs
The Wanton Song tabs
Celebration Day tabs
Stairway To Heaven 100% Right tabs
For Your Life tabs
Thank You tabs
Out On The Tiles tabs
Prison Blues tabs
Going To California tabs
Bron-yr-aur tabs
Your Time Is Gonna Come tabs


Guitar Tabs









All tabs are property and copyright of their owners. All tabs provided for educational purposes only. Privacy Policy, DMCA