Led Zeppelin

Rock And Roll(studio Version) Bass Tabs



More from Led Zeppelin

Led Zeppelin Tabs
Led Zeppelin Chords
Led Zeppelin Bass
Led Zeppelin Lyrics



INTRO
G|----------------|----------------|----------------|----------------|
D|----------------|----------------|----------------|----------------|
A|----------------|----------------|----------------|----------------|
E|5-5-5-5-5-5-5-5-|5-5-5-5-5-5-5-5-|5-5-5-5-5-5-5-5-|--5-5-5-5-5-5-5-|

G|----------------|----------------|----------------|----------------|
D|----------------|----------------|----------------|----------------|
A|3-5-5-5-5-5-5-5-|--5---5-5-5-5-5-|----------------|----------------|
E|----------------|----------------|3-5-5-5-5-5-5-5-|5-5-5-5-5-5-5-5-|

G|----------------|----------------|----------------|----------------|
D|----------------|----------------|----------------|----------------|
A|5-7-7-7-7-7-7-7-|5-7-7-7-7-7-7-7-|----------------|----------------|
E|----------------|----------------|3-5-5-5-5-5-5-5-|5-5-5-5-5-5-0-3-|
It's

G| ----------------|----------------|----------------|----------------|
D|o----------------|----------------|----------------|----------------|
A|o----------------|----------------|----------------|----------------|
E| 3-5-5-5-5-5-5-5-|3-5-5-5-5-5-5-5-|3-5-5-5-3-5-5-5-|3-5---3-5---3---|
been a long time since I rock and rolled...
been a long time since the book of love...

G|----------------|----------------|----------------|----------------|
D|----------------|----------------|----------------|----------------|
A|----------------|----------------|----------------|----------------|
E|3-5-5-5-5-5-5-5-|3-5-5-5-5-5-5-5-|3-5-5-5-3-5-5-5-|3-5---3-5---3---|

G|----------------|----------------|----------------|----------------|
D|----------------|----------------|----------------|----------------|
A|3-5-5-5-5-5-5-5-|3-5-5-5-5-5-5-5-|3-5-5-5-5-5-5-5-|3-5-5-3-5-5-3-3-|
E|----------------|----------------|----------------|----------------|

G|----------------|----------------|----------------|----------------|
D|----------------|----------------|----------------|----------------|
A|----------------|----------------|----------------|----------------|
E|3-5-5-5-5-5-5-5-|3-5-5-5-5-5-5-5-|3-5-5-5-3-5-5-5-|3-5---3-5---3-0-|

G|----------------|----------------|----------------|----------------|
D|----------------|----------------|----------------|----------------|
A|5-7-7-7-7-7-7-7-|5-7-7-7-7-7-6-6-|5---------------|----------------|
E|----------------|----------------|----------------|----------------|
____________________________________________________________________
|1. |
G|----------------|----------------|----------------|---------------- |
D|----------------|----------------|----------------|----------------o|
A|----------------|----------------|----------------|----------------o|
E|5-5-5-5-5-5-5-5-|5-5-5-5-5-5-5-5-|5-5-5-5-5-5-5-5-|5-3-3-3-2-2-0-0- |
________________
|2.
G|----------------|----------------|----------------|----------------|
D|----------------|----------------|----------------|----------------|
A|----------------|----------------|----------4---5-|--6---7---------|
E|5-5-5-5-5-5-5-5-|3-5-5-5-5-0-1-3-|5-5-5-5-5-------|----------0-0-0-|

G|----------------|----------------|----------------|----------------|
D|----------------|----------------|----------------|----------------|
A|----------------|----------------|----------------|----------------|
E|3-5-5-5-3-3-2-0-|5-5-5-5-5-0-2-0-|5-5-5-5-5-0-2-3-|5-5-5-5-5-5-5-5-|

G|----------------|----------------|----------------|----------------|
D|----------------|----------------|----------------|----------------|
A|3-5-5-5-5-5-5-5-|3-5-5-5-5-5-5-5-|0-0-0-0-0-------|0-0-0-0-0-0-4-5-|
E|----------------|----------------|----------0-2-3-|----------------|

G|----------------|----------------|----------------|----------------||
D|----------------|----------------|----------------|5-4---2---0-----||
A|7-7-7-7-7-7---7-|5---5---5-------|----------------|------------2-0-||
E|------------7---|----------0-2-3-|5-5-5-5-5-5-5-5-|----------------||

Guitar Solo
G|----------------|----------------|----------------|
D|----------------|----------------|----------------|
A|----------------|----------------|----------------|
E|5---5---5-0-2-3-|3-5-5-5-5-5-5-5-|3-5-5-5-5-5-5-5-|

G|----------------|----------------|----------------|----------------|
D|----------------|----------------|----------------|----------------|
A|----------------|----------------|----------------|----------------|
E|3-5-----5---5---|3-5-5-5-5-5-5-5-|3-5-5-5-5-5-5-5-|3-5-5-5-5-5-5-5-|

G|----------------|----------------|----------------|----------------|
D|----------------|----------------|----------------|----------------|
A|----------------|3-5-5-5-5-5-5-5-|3-5-5-5-5-5-5-5-|3-5-5-5-5-5-5-5-|
E|3-3-3-3-5-5-3-3-|----------------|----------------|----------------|

G|----------------|----------------|----------------|----------------|
D|----------------|----------------|----------------|----------------|
A|5-5-5-3-5---3---|----------------|----------------|----------------|
E|----------------|3-5-5-5-5-5-5-5-|3-5-5-5-5-5-5-5-|3-5-5-5-5-5-5-5-|

G|----------------|----------------|----------------|----------------|
D|----------------|----------------|----------------|----------------|
A|----------------|5-7-7-7-7-7-7-7-|7---7---7---7-6-|5---------------|
E|3-5---3-5---3---|----------------|--7---7---7-----|----------------|

G|----------------|----------------|----------------|----------------|
D|----------------|----------------|----------------|----------------|
A|----------------|----------------|----------------|----------------|
E|----------------|5-5-5-5-5-5-5-5-|5-5-5-3-3-2-2-0-|5-5-5-5-5-5-5-0-|

G|----------------||
D|----------------||
A|----------------||
E|2-0-3-0-2-0-2-3-||

G|----------------|----------------|----------------|----------------|
D|----------------|----------------|----------------|----------------|
A|----------------|----------------|----------------|----------------|
E|5-5-5-5-5-5-5-5-|3-5-5-5-5-5-5-5-|3-5-5-5-5-5-5-5-|5-5-5-3-5-5-3-0-|
It's been so long since I walked in the moonlight...

G|----------------|----------------|----------------|----------------|
D|----------------|----------------|----------------|----------------|
A|----------------|----------------|----------------|----------------|
E|3-5-5-5-5-5-5-5-|3-5-5-5-5-5-5-5-|3-5-5-5-5-5-5-5-|5-5-5-3-5-5-3-0-|

G|----------------|----------------|----------------|----------------|
D|----------------|----------------|----------------|----------------|
A|3-5-5-5-5-5-5-5-|3-5-5-5-5-5-5-5-|3-5-5-5-5-5-5-5-|5-5-5-3-5---3---|
E|----------------|----------------|----------------|--------------3-|

G|----------------|----------------|----------------|----------------|
D|----------------|----------------|----------------|----------------|
A|----------------|----------------|----------------|----------------|
E|3-5-5---5---5-5-|3-5-5-5-5-5-5-5-|3-5-5-5-5-5-5-5-|5-5-5-3-5---3---|

G|----------------|----------------|----------------|----------------|
D|----------------|----------------|----------------|----------------|
A|5-7-7-7-7-7-7-7-|7-7-7-7-7-7-7-7-|5---------------|----------------|
E|----------------|----------------|----------------|----------------|

G|----------------|----------------|----------------|----------------|
D|----------------|----------------|----------------|----4-4-5-5-6-6-|
A|----------------|----------------|----4-4-5-5-6-6-|7-7-------------|
E|3-5-5-5-5-5-5-5-|5-5-5-5-5-5-5-5-|3-5-------------|----------------|

G|----------------|----------------|----------------|----------------|
D|7---------------|----------------|----------------|----------------|
A|----------------|----------------|----------------|----------------|
E|--5-5-5-5-5-5-5-|3-5-5-5-5-5-5-5-|3-5-5-5-5-5-5-5-|5-5-5-5-5-0-2-3-|

G|----------------|----------------|----------------|----------------|
D|----------------|----------------|----------------|----------------|
A|----------------|----------------|--------0-0-1-1-|1-1-2-2-3-3-4-4-|
E|3-5-5-5-5-5-5-5-|3-5-5-5-5-5-5-5-|3-5-5-5---------|----------------|

G|----------------|----------------|----------------|----------------|
D|----------------|----------------|----------------|----------------|
A|3-5-5-5-5-5-5-5-|5-5-5-5-5-5-5-5-|5-5-5-5-5-5-5-5-|5-5-5-5-5-5-3---|
E|----------------|----------------|----------------|--------------0-|

G|----------------|----------------|----------------|----------------|
D|----------------|----------------|----------------|----------------|
A|----------------|----------------|----------------|----------------|
E|5-5-5-3-3-3-4-4-|5-5-5-5-5-5-5-0-|3-5-5-5-5-5-5-5-|5-5-5-5-5-5-5-5-|

G|----------------|----------------|----------------|----------------|
D|----------------|----------------|----------------|----------------|
A|----------------|----------------|5---------------|----------------|
E|0-0-4-4-4-4-0-0-|0-0-0-0-0-0-0-0-|----------------|----------------|
Been a long time, been a long time, been a lonely

G|----------------|----------------|----------------|----------------||
D|----------------|----------------|----------------|----------------||
A|----------------|----------------|----------------|----------------||
E|----------------|----------------|----------------|5---------------||

Taken from The BassMasta -- http://www.tabs-database.com



Get this song at amazon.com      Ebay     Ringtones Ringtones  


Learn to play: Songwriting, Piano, Harmonica, Guitar
More Led Zeppelin lyrics available at Muzikum

Related Led Zeppelin Bass Tabs

In The Light bass
Black Dog bass
Misty Mountain Hop bass
Wearing And Tearing bass
California Girl bass
Babe, Im Going To Leave You bass
Achelles Last Stand bass
When The Levee Breaks bass
Bring It On Home Alternate Version bass
Immigrant Song bass
Ramble On bass
Stairway To Heaven Intro bass
Trampeled Underfoot bass
Royal Orleans (complete) bass
The Ocean (complete) bass
White Summer/black Mountain Side bass
Whole Lotta Of Love bass
The Ocean (100% Correct) bass
Friends bass
Kashmir (the Right Way!) bass


Guitar Tabs









All tabs are property and copyright of their owners. All tabs provided for educational purposes only. Privacy Policy, DMCA