Led Zeppelin

Remasters Disc 1 Tabs



More from Led Zeppelin

Led Zeppelin Tabs
Led Zeppelin Chords
Led Zeppelin Bass
Led Zeppelin Lyrics

This is the tabs for Led Zeppelin's 1990 album "Rematers". This is only disc 1. i didn't

tab all these myself, i'm simply reposting them in the order of the remasters disc set. PLEASE RATE!!!!



Songs is order

1.Communication Breakdown

2.Babe I'm Gonna Leave You

3.Good Times Bad Times

4.Dazed And Confused

5.Whole Lotta Love

6.Heartbreaker

7.Ramble On

8.Immigrant Song

9.Celebration Day

10.Since I've Been Loving You

11.Black Dog

12.Rock N Roll

13.The Battle Of Evermore ( transcribed for guitar)

14.Misty Mountain Hop

15.Stairway To Heaven





















-----------------------------------------------------------------------------

Led Zeppelin - Commmunication Breakdown

-----------------------------------------------------------------------------







Standard Tuning



E|----------------|----------------|----------------|----------------|

B|----------------|--7-----5---7---|----------------|--7-----5---7---|

G|----------------|--7-----6---7---|----------------|--7-----6---7---|

D|----------------|--7-----7---7---|----------------|--7-----7---7---|

A|----------------|--5-----7---5---|----------------|--5-----7---5---|

E|0-0-0-0-0-0-0-0-|0-------5-------|0-0-0-0-0-0-0-0-|0-------5-------| 6X



E|--------------5-|--------------5-|--------------5-|----------------|

B|--------------5-|--------------5-|--------------5-|----------------|

G|--------------6-|--------------6-|--------------6-|----------------|

D|--------------7-|--------------7-|--------------7-|----------------|

A|7-7-9-7-7-9---7-|--7-9-7-7-9---7-|---7-9-7-7-9--7-|--7-9-7-7-7-9-7-|

E|5-5-5-5-5-5---5-|--5-5-5-5-5---5-|---5-5-5-5-5--5-|--5-5-5-5-5-5-5-|



E|--------------7-|--------------7-|--------------7-|----------------|

B|--------------7-|--------------7-|--------------7-|----------------|

G|--------------8-|--------------8-|--------------8-|----------------|

D|--------------7-|--------------7-|--------------7-|----------------|

A|9-9-119-9-9-119-|--9-119-9-9-119-|--9-119-9-9-119-|--9-119-9-9-11--|

E|7-7-7-7-7-7-7-7-|--7-7-7-7-7-7-7-|--7-7-7-7-7-7-7-|--7-7-7-7-7-7-0-|



E|----------------|----------------|----------------|----------------|

B|----------------|--7-----5---7---|----------------|--7-----5---7---|

G|----------------|--7-----6---7---|----------------|--7-----6---7---|

D|----------------|--7-----7---7---|----------------|--7-----7---7---|

A|----------------|--5-----7---5---|----------------|--5-----7---5---|

E|0-0-0-0-0-0-0-0-|0-------5-------|0-0-0-0-0-0-0-0-|0-------5-------| 5X



E|--------------5-|--------------5-|--------------5-|----------------|

B|--------------5-|--------------5-|--------------5-|----------------|

G|--------------6-|--------------6-|--------------6-|----------------|

D|--------------7-|--------------7-|--------------7-|----------------|

A|7-7-9-7-7-9---7-|--7-9-7-7-9---7-|---7-9-7-7-9--7-|--7-9-7-7-7-9-7-|

E|5-5-5-5-5-5---5-|--5-5-5-5-5---5-|---5-5-5-5-5--5-|--5-5-5-5-5-5-5-|



E|--------------7-|--------------7-|--------------7-|--7-------------|

B|--------------7-|--------------7-|--------------7-|--7-------------|

G|--------------8-|--------------8-|--------------8-|--8-------------|

D|--------------7-|--------------7-|--------------7-|--7-------------|

A|9-9-119-9-9-119-|--9-119-9-9-119-|--9-119-9-9-119-|--9-119-9-----57|

E|7-7-7-7-7-7-7-7-|--7-7-7-7-7-7-7-|--7-7-7-7-7-7-7-|--7-7-7-7-----57|



Rhythm part under Guitar Solo

E|----------------|----------------||----------------|----------------|

B|9---------------|----------------||----------------|--7-----5---7---|

G|9---------------|----------------||9-9-9-9-9-9-9-9-|--7-----6---7---|

D|9---------------|----------------||9-9-9-9-9-9-9-9-|--7-----7---7---|

A|7---------------|----------------||7-7-7-7-7-7-7-7-|--5-----7---5---|

E|7---------------|----------------||0-0-0-0-0-0-0-0-|--------5-------| 7X



Rhythm part under Outro Guitar part

E|--------------5-|--------------5-|--------------5-|----------------|

B|--------------5-|--------------5-|--------------5-|----------------|

G|--------------6-|--------------6-|--------------6-|----------------|

D|--------------7-|--------------7-|--------------7-|----------------|

A|7-7-9-7-7-9---7-|--7-9-7-7-9---7-|---7-9-7-7-9--7-|--7-9-7-7-7-9-7-|

E|5-5-5-5-5-5---5-|--5-5-5-5-5---5-|---5-5-5-5-5--5-|--5-5-5-5-5-5-5-|



E|--------------7-|--------------7-|--------------7-|----------------|

B|--------------7-|--------------7-|--------------7-|----------------|

G|--------------8-|--------------8-|--------------8-|----------------|

D|--------------7-|--------------7-|--------------7-|----------------|

A|9-9-119-9-9-119-|--9-119-9-9-119-|--9-119-9-9-119-|--9-119-9-9-11--|

E|7-7-7-7-7-7-7-7-|--7-7-7-7-7-7-7-|--7-7-7-7-7-7-7-|--7-7-7-7-7-7-0-|



E|----------------|----------------|----------------|----------------|

B|----------------|--7-----5---7---|----------------|--7-----5---7---|

G|----------------|--7-----6---7---|----------------|--7-----6---7---|

D|----------------|--7-----7---7---|----------------|--7-----7---7---| 6X

A|----------------|--5-----7---5---|----------------|--5-----7---5---| then

E|0-0-0-0-0-0-0-0-|0-------5-------|0-0-0-0-0-0-0-0-|0-------5-------| fade



Guitar Solo

E|---12------------14--------------------------12---------------------

B|12----151212-----12-1512121212-12-151212--12----151212--------------

G|16----------1416------------------------14------------14------------

D|--------------------------------------------------------------------

A|--------------------------------------------------------------------

E|--------------------------------------------------------------------



E|-------------------------12--------12--------------------------------

B|12-12-15----12-12-151212------12---12------------------------------12

G|---------14-----------------------------1412---14-13---------12-15---

D|--------------------------------------------14-------14-12-14--------

A|---------------------------------------------------------------------

E|---------------------------------------------------------------------



/---3--\/---3---\

E|12----12----12---12---17---15---12----12----------12--------------------

B|---15----15------------------------15----------12-----------------------

G|-----------------------------------------14-16---------16-14-12----14-12

D|----------------------------------------------------------------14------

A|------------------------------------------------------------------------

E|------------------------------------------------------------------------



E|-----9----9----9----------------------------------------------------

B|---9-9-12-9-12-9----------------------------9--------------10-------

G|-----------------12-11911-11-9----9-9-11-12---119---11-9-9----------

D|12-----------------------------11----------------11-----------------

A|--------------------------------------------------------------------

E|--------------------------------------------------------------------



E|---10------10-----------------------------9-9-7-7-0-----------------

B|12-12---12----12-108--10-8----------------9-9-7-7-0-----------------

G|--------------------9------9-8-9----------9-9-7-7-0-----------------

D|--------------------------------------------------------------------

A|--------------------------------------------------------------------

E|---------------------------------12---0-----------------------------



Outro Guitar solo

E|---------------------------------------------------------------------

B|9-9-9-10-10-10-11-11-12-12-13-13-14-14-15-15-16-16-17-17-201717-17-17

G|---------------------------------------------------------------------

D|---------------------------------------------------------------------

A|---------------------------------------------------------------------

E|---------------------------------------------------------------------



E|--------------------------19-22-------19-18-17----------------------

B|17-17-22---22-20-17----17----------------------20-19-17-------------

G|--------------------19------------------------------------18-17-21--

D|--------------------------------------------------------------------

A|--------------------------------------------------------------------

E|--------------------------------------------------------------------



E|---19----------------------24---24----------------------------------

B|------1917---17-17-19-17--------------------------------------------

G|----------18--------------------------------------------------------

D|--------------------------------------------------------------------

A|--------------------------------------------------------------------

E|--------------------------------------------------------------------



Second outro solo at 02:18 /---3---\

E|------------------------------------------------------------------------

B|12-----12---12---12------14-12----------------------20-----------20-----

G|-------------------1412--14-12----------12----19-21----2119-1921---21-19

D|-----------------------14------14-12-14-0-------------------------------

A|------------------------------------------------------------------------

E|------------------------------------------------------------------------



E|0-15-17-------------------------------------------------------------

B|------------------24-----------22---24-23-20-2223--21-22------------

G|--------------------------------------------------------------------

D|--------------------------------------------------------------------

A|--------------------------------------------------------------------

E|--------------------------------------------------------------------



/--3-\ /--3-\ fade out

E|-----17---------------------------------------

B|--20-------172017---172017---17---------------

G|--------19-------19-------19------------------

D|----------------------------------------------

A|----------------------------------------------

E|----------------------------------------------











**************************

*Babe I'm Gonna Leave You*

**************************



There are four parts acoustic one and two and an electric guitar and a slide guitar.

Standard Tuning for all Guitars except slide. Tuning 1=D



KEY:

~=vribrato

()=optional note

/=slide up

\=slide down

%=eigth rest

h=hammer

D.S. :S: al Coda=Go back to :S:

(+)=Coda

P=pull off

T=use thumb

B=bend 1 step

R=Bend 1 step then return

X=mute

b=bend 1/2 step



Moderately slow with a halftime feel (A quarter note=138)

INTRO:Acoustic guitar 1

4/4 time.

|-------0---------|--------------------|--------------------|

|---------------1-|-------3----------1-|-------3----------1-|

|---2-2-------2---|-----0----------0---|-----2----------2---|

|---2-------2-----|---2----------2-----|---0----------0-----|

|0--------0-------|--------------------|--------------------|

|-----------------|-3----------3-------|-2----------2-------|



|--------------------|-------3----------0-|-------3----------0-|

|-------1----------0-|--------------------|--------------------|

|-----2----------1---|-----2----------2---|-----0----------0---|

|---3----------2-----|---2----------2-----|---2----------2-----|

|--------------------|-0----------0-------|--------------------|

|-1----------0-------|--------------------|-3----------3-------|



|--------------------|--------------------|

|-------3----------1-|-------1----------0-|

|-----2----------2---|-----2----------1---|

|---0----------0-----|---3----------2-----|

|--------------------|--------------------|

|-2----------2-------|-1----------0-------|



Verse 1

|-------3----------0-|--------------------|--------------------|

|--------------------|-------3----------1-|-------3----------1-|

|-----2----------2---|-----0----------0---|-----2----------2---|

|---2----------2-----|---2----------2-----|---0----------0-----|

|-0----------0-------|--------------------|--------------------|

|--------------------|-3----------3-------|-2----------2-------|

Babe, ba - by,

|--------------------|-------3----------0-|--------------------|

|-------1----------0-|--------------------|-------3----------1-|

|-----2----------1---|-----2----------2---|----------------0---|

|---3----------2-----|---2----------2-----|---2-2--------2-----|

|--------------------|-0----------0-------|--------------------|

|-1----------0-------|--------------------|-3----------3-------|

ba - by,___ I'm__ gon-na leave_you.___

|--------------------|--------------------|-------3----------0-|

|-------3----------1-|-------1----------0-|--------------------|

|-----2----------2---|-----2----------1---|-----2----------2---|

|---0----------0-----|---3----------2-----|---2----------2-----|

|--------------------|--------------------|-0----------0-------|

|-2----------2-------|-1----------0-------|--------------------|

I said___ ba _ by___

|--------------------|-------------------|--------------------|

|-------3----------1-|-------3---------1-|-------1----------0-|

|-----0----------0---|-----2---------2---|-----2----------1---|

|---2----------2-----|---0---------0-----|---3----------2-----|

|--------------------|-------------------|--------------------|

|-3----------3-------|-2---------2-------|-1----------0-------|

you___ know___ I'm

|-------3----------1-|-------3----------1-|--------------------|

|--------------------|--------------------|-------3----------1-|

|-----2----------2---|-----0----------0---|-----2----------2---|

|---2----------2-----|---2----------2-----|---0----------0-----|

|-0----------0-------|--------------------|--------------------|

|--------------------|-3----------3-------|-2----------2-------|

gon-na leave__ you.__

|--------------------|--------------------|--------------------|

|-------1----------1-|-------3----------1-|-------3----------0-|

|-----2----------1---|-----2----------2---|-----1----------1---|

|---3----------2-----|---3----------3-----|---2----------2-----|

|--------------------|--------------------|--------------------|

|-1----------0-------|-1----------1-------|-0----------0-------|

I'll_____________ leave you_ when the sum-mer time,___

|--------------------|--------------------|-------0----------0-|

|-------3----------1-|-------3----------0-|--------------------|

|-----2----------2---|-----1----------1---|-----2----------2---|

|---3----------3-----|---2----------2-----|---2----------2-----|

|--------------------|--------------------|-0----------0-------|

|-1----------1-------|-0----------0-------|--------------------|

leave you when the sum-mer comes a rol - lin,__________

|-------3----------0-|--------------------|--------------------|

|--------------------|-------3----------1-|-------1----------0-|

|-----0------0-2hp0--|-----2----------2---|-----2----------1---|

|---2----------------|---0----------0-----|---3----------2-----|

|--------------------|--------------------|--------------------|

|-3---------3--------|-2----------2-------|-1----------0-------|

leave__ you when the sum-mer comes a -

|0--0-0--0---0---0-|0-0-0-0-0-0-0--|

|1--1-1--1---8---6-|6-6-6-6-6-6-6-0|

|2--2-2--2-%-9-%-7-|7-7-7-7-7-7-7-0| Repeat 4 times

|2--2-2--2---9---7-|7-7-7-7-7-7-7-0|

|0--0-0--0---0---0-|0-0-0-0-0-0-0-0|

|------------------|---------------|

|long._______ :S:

|Acoustic 2 To Coda (+) (second time through).

|0-------0---0----0--|--0--0--0--0--0--0---|

|5-------5---12---10-|--10-10-10-10-10-10-0|

|5--5-5--5-%-12-%-10-|--10-10-10-10-10-10-0| Repeat 4 times

|7--7-7--7---14---12-|--12-12-12-12-12-12-0|

|0--0-0--0---0----0--|--0--0--0--0--0--0---|

|--------------------|---------------------| To Coda (+)(+) (third time)



|------------------0|-------------------|-------------------|

|-------------------|-------3----------1|-------1----------1|

|-----2----------2--|-----0----------0--|-----2----------2--|

|---2----------2----|---2----------2----|---0----------0----|

|0----------0-------|-------------------|-------------------|

|-------------------|-3----------3------|-2----------2------|

Ba - ba,__ ba,__ ba,___ ba,____ ba,______ ba -

|-------------------|-------3----------0|-------------------|

|-------1----------1|-------------------|-------3----------1|

|-----2----------2--|-----2----------2--|-----0----------0--|

|---3----------3----|---2----------2----|---2----------2----|

|-------------------|-0----------0------|-------------------|

|-1----------0------|-------------------|-3----------3------|

by, mmm ba - by I don'twanna leave you___

|-------------------|-------------------|-------3----------0|

|-------3----------1|-------1----------0|-------------------|

|-----2----------2--|-----2----------1--|-----2----------2--|

|---0----------0----|---3----------2----|---2----------2----|

|-------------------|-------------------|-0----------0------|

|-2----------2------|-1----------0------|-------------------|

I ain't__ jok-in'__ wo-man I've gor to____ ram - ble,

|-------------------|-------------------|-------------------|

|-------3----------1|-------1----------1|-------1----------0|

|-----0----------0--|-----2----------2--|-----2----------1--|

|---2----------2----|---0----------0----|---3----------2----|

|-------------------|-------------------|-------------------|

|-3----------3------|-2----------2------|-1----------0------|

oh_______ yeah,______________

|-------3----------0|-------------------|-------------------|

|-------------------|-------3----------1|-------3----------1|

|-----2----------2--|-----0----------0--|-----2----------2--|

|---2----------2----|---2----------2----|---0----------0----|

|-0----------0------|-------------------|-------------------|

|-------------------|-3----------3------|-2----------2------|

Ba - by, ba - by___ I won't| be there,________

Acoustic two FILL |

|------7h--10--12-----7h|

|----8h-------------8h--|

|--7h------------%-9----|

|-9---------------------|

|-----------------------|

|-----------------------|

Acoustic 1

|-------------------|-------------------|-------------------|

|-------1----------1|-------3----------1|-------3----------0|

|-----2----------1--|-----2----------2--|-----1----------1--|

|---3----------2----|---3----------3----|---2----------2----|

|-------------------|-------------------|-------------------|

|-1----------0------|-1----------1------|-0----------0------|

|real - ly__ got to ram - ble,_____

|Acoustic 2

|-10--12---8-10hp8\7--8---7-8hp7\|5~~~~~~~~~|~~~~~~~~~~~~|

|--------------------------------|----------|------------|

|--------%-----------------------|----------|------------|

|--------------------------------|----------|------------|

|--------------------------------|----------|------------|

|--------------------------------|----------|------------|



Acoustic 1

|-------------------|-------------------|

|-------3----------1|-------3----------0|

|-----2----------2--|-----1----------1--|

|---3----------3----|---2----------2----|

|-------------------|-------------------|

|-1----------1------|-0----------0------|

I can hear it cal - lin' me the way it

|-------0-----------|-------------------|

|------------------3|-------1----------1|

|-----2----------2--|-----0----------2--|

|---2----------2----|---2----------3----|

|-0----------0------|-------------------|

|-------------------|-3----------3------|

used to do_____

|------------------0|-------------------|

|-------1-----------|-------1----------0|

|-----2----------2--|-----2----------1--| D.S. :S: al Coda

|---3----------3----|---3----------2----|

|-------------------|-------------------|

|-3----------3------|-1----------0------|

I can hear it cal - lin' me back home__

Coda 1 (+) Acoustic 1

|-------------------|-------------------|

|-------5----------9|-------8-------6---|

|-----4----------8--|-----7-------7-----|

|---2-----2/7--7----|---7-------7-------|

|0--------0(0)------|0--------0---------|

|-------------------|-------------------|

|Acoustic 2

|-------------------|-------------------|

|-----------------8-|-------8-------6---|

|-----4/5-------9---|-----7-------7-----|

|---2-------3/7-----|---7-------7-------|

|0--------0---------|0--------0---------|

|-------------------|-------------------|



|-------------------|-------------------|

|------------------8|-------8-------6---|

|-----4/5--------9--|-----7-------7-----|

|---2--------3/7----|---7-------7-------|

|0---------0--------|0--------0---------|

|-------------------|-------------------|

| Repeat these two measures 2 times.

|-------------------|-------------------|

|------------------8|-------8-------6---|

|-----4/5--------9--|-----7-------7-----|

|---2-------3/7-----|---7-------7-------|

|0--------0---------|0--------0---------|

|-------------------|-------------------|



|-------------------|-------------------|-------------------|

|-------------------|-------------------|-------------------|

|9/14--14--9--14--14|9/12--12--9--12--12|9/11--11--9--11--11|

|9/14--14--9--14--14|9/12--12--9--12--12|9/11--11--9--11--11|

|7/12--12--7--12--12|7/10--10--7--10--10|7/9---9---7--9---9-|

|-------------------|-------------------|-------------------|

|Ba - by C'mon, Babe!

|Electric Guitar

|-------------------|-------------------|-------------------|

|-------------------|-------------------|-------------------|

|-------------------|-------------------|-------------------|

|---7--7-----7----7-|---5--5-----5----5-|---4--4-----4----4-|

|---7--7-----7----7-|---5--5-----5----5-|---4--4-----4----4-|

|0--5--5--0--5----5-|0--3--3--0--3----3-|0--2--2--0--2----2-|



|-------------------|

|-------------------|

|9/10--10--9--10--10|

|9/10--10--9--10--10|

|7/8---8---7--8---8-|

|-------------------|

| I'm gonna leave you girl,__ oh,__ Ba - by, you__ know, I've real-ly got to leave_____ ya,____

|-------------------|

|-------------------|

|-------------------|

|---1--1-----2----2-|

|---1--1-----2----2-|

|0--3--3--0--0----0-| Repeat these 4 measures 4 times.



|-------------------|-------------------|

|-------------------|-------------------|

|9/11--11--9--11-11-|-------------------|

|9/11--11--9--11-11-|9/10--10--9--10-10-|

|7/9---9---7--9---9-|7/8---8---7--8---8-|

|-------------------|-------------------|

| oh, I can hear it cal- lin' me,__

| I said don't you hear it__ cal-lin' me the way it used to do.__

|-------------------|-------------------|

|-------------------|-------------------|

|-------------------|-------------------|

|---3--3-----3----3-|---2--2-----2----2-|

|---3--3-----3----3-|---2--2-----2----2-| Repeat these 2 measures 2 times.

|0--1--1--0--1----1-|0--0--0--0--0----0-| D.S. :S: al Coda



Coda (+)(+)

|-------0-----------|-------------------|-------------------|

|---------------1---|-------3----------1|-------3----------1|

|-----2-------2-----|-----0----------0--|-----2----------2--|

|---2-------2-------|---2----------2----|---0----------0----|

|0--------0---------|-------------------|-------------------|

|-------------------|-3----------3------|-2----------2------|

Acoustic 2|

|

|-------------------|

|-----------5----6--|

|-------------------|

|-------------------|

|-------------------|

|-------------------|



|-------------------|-------3----------0|-------------------|

|-------1----------0|-------------------|-------3----------1|

|-----2----------1--|-----2----------2--|-----0----------0--|

|---3----------2----|---2----------2----|---2----------2----|

|-------------------|-0----------0------|-------------------|

|-1----------0------|-------------------|-3----------3------|

|

|-------------------|------------------|-------------------|

|8--6--5-6hp-5\3-5-3|1-3hp1p0----------|------1------------|

|-------------------|---------2--2~~~~~|-%--2---%-%------2-|

|-------------------|------------------|-------------------|

|-------------------|------------------|-------------------|

|-------------------|------------------|-------------------|



|-------------------|-------------------|

|-------3----------1|-------1----------0|

|-----2----------2--|-----2----------1--|

|---0----------0----|---3----------2----|

|-------------------|-------------------|

|-2----------2------|-1----------0------|

|

|---------0-------------|------------------------------|

|0--1--3-----3p1p0-1p0-0|------------------------------|

|---------------------2-|2p0---------------------------|

|-----------------------|----3p2p0-2p02p0--0--0--------|

|-----------------------|-----------------3--3-3-1-3hp1|

|-----------------------|------------------------------|



|-------3----------1|-------1----------0|-------0----------0|

|-------------------|-------------------|-------------------|

|-----2----------2--|-----0----------0--|-----2----------2--|

|---2----------2----|---2----------2----|---0----------0----|

|-0----------0------|-------------------|-------------------|

|-------------------|-3----------3------|-2----------2------|

| I know_________ I know_________ I know I'm nev-er nev-

|-------------------|

|-------------------|

|-------------------|

|-------------------|

|0------------------|

|-------------------|



|-------0----------0|-------------------|-------------------|

|-------------------|-------1----------1|-------1----------1|

|-----2----------1--|-----2----------2--|-----0----------0--|

|---3----------2----|---2----------2----|---2----------2----|

|-------------------|-0----------0------|-------------------|

|-1----------0------|-------------------|-3----------3------|

er never never never gonna leave you, babe,___

|-------------------|-------------------|-------3----------1|

|-------1----------1|-------1----------0|-------------------|

|-----2----------2--|-----2----------1--|-----2----------2--|

|---0----------0----|---3----------2----|---2----------2----|

|-------------------|-------------------|-0----------0------|

|-2----------2------|-1----------0------|-------------------|

I've got-ta go a-way form this place

|-------0----------1|-------0-----------|-------0----------0|

|-------------------|------------------3|-------------------|

|-----0----------0--|-----2----------2--|-----2----------1--|

|---2----------2----|---0----------0----|---3----------2----|

|-------------------|-------------------|-------------------|

|-3----------3------|-2----------2------|-1----------0------|

I got-ta quit___ you, yeah, oh________

|-------------------|-------------------|-------------------|

|-------1----------1|-------1----------1|-------1----------1|

|-----2----------2--|-----0----------0--|-----2----------2--|

|---2----------2----|---2----------2----|---0----------0----|

|-0----------0------|-------------------|-------------------|

|-------------------|-3----------3------|-2----------2------|

___ Ba - by ba - by ba - by

|-------------------|0--0--0--0--0---0--|3--3--3P0---3---3--|

|-------1----------0|0--1--1--0--1---1--|1--1--1-----1---1--|

|-----2----------1--|0--2--2--0--2---2--|0--0--0-----0---0--|

|---3----------2----|0--2--2-----2---2--|2--2--2-----2---2--|

|-------------------|0--0--0-----0---0--|0--0--0-----0---0--|

|-1----------0------|-------------------|-------------------|

ba - by,__ | ba - by,___ ba - by,___

| Electric guitar

|-------------------|-------------------|

|-------------------|-------------------|

|-------------------|-------------------|

|---7--7-----7----7-|---5--5-----5----5-|

|---7--7-----7----7-|---5--5-----5----5-|

|0--5--5--0--5----5-|0--3--3--0--3----3-|



|0--2--2P0---2---2--|---0--0-----0---0--|0--0--0--0--0---0--|

|1--1--1-----1---1--|---1--1-----0---0--|1--1--1--0--1---1--|

|2--2--2-----2---2--|---2--2-----1---1--|2--2--2--0--2---2--|

|0--0--0-----0---0--|---3--3-----2---2--|2--2--2--0--2---2--|

|-------------------|------------2---2--|0--0--0-----0---0--|

|-------------------|1T----------0---0--|-------------------|

| ba - by,_____ oh,__________

|-------------------|-------------------|-------------------|

|-------------------|-------------------|-------------------|

|-------------------|-------------------|-------------------|

|---4--4-----4----4-|---3--3-----2----2-|---7--7-----7----7-|

|---4--4-----4----4-|---3--3-----2----2-|---7--7-----7----7-|

|0--2--2--0--2----2-|0--1--1--0--0----0-|0--5--5--0--5----5-|



|0--3--3P0---3---3--|0--2--2P0---2---2--|---0--0-----0---0--|

|1--1--1-----1---1--|1--1--1-----1---1--|---1--1-----0---0--|

|0--0--0-----0---0--|2--2--2-----2---2--|---2--2-----1---1--|

|2--2--2-----2---2--|0--0--0-----0---0--|---3--3-----2---2--|

|0--0--0-----0---0--|-------------------|------------2---2--|

|-------------------|-------------------|1T----------0---0--|

| don't you hear it cal-lin' him?______

|-------------------|-------------------|-------------------|

|-------------------|-------------------|-------------------|

|-------------------|-------------------|-------------------|

|---5--5-----5----5-|---4--4-----4----4-|---3--3-----2----2-|

|---5--5-----5----5-|---4--4-----4----4-|---3--3-----2----2-|

|0--3--3--0--3----3-|0--2--2--0--2----2-|0--1--1--0--0----0-|



|-------0-----------|-------------------|-------------------|

|------------------3|-------1----------3|-------1----------1|

|-----2----------2--|-----0----------0--|-----2----------2--|

|---2----------2----|---2----------2----|---0----------0----|

|0-----------0------|-------------------|-------------------|

|-------------------|-3----------3------|-2----------2------|

oh,______ wo - man,______

|-------------------|-------3----------1|-------0-----------|

|-------1----------0|-------------------|------------------3|

|-----2----------1--|-----2----------2--|-----0----------0--|

|---3----------2----|---2----------2----|---2----------2----|

|-------------------|-0----------0------|-------------------|

|-1----------0------|-------------------|-3----------3------|

| wo-man, I know,_____

| slide guitar Tuning (1)= D

|---------19-19/17--|-17/19---19~~~~~~~~|

|-------------------|-------------------|

|-------------------|-------------------|

|-------------------|-------------------|

|-------------------|-------------------|

|-------------------|-------------------|



Alternate fingering

|-------0-----------|-------0----------0|-------------------|

|------------------3|-------------------|-------8----------6|

|-----2----------2--|-----2----------1--|-----5----------5--|

|---0----------0----|---3----------2----|---7----------7----|

|-------------------|-------------------|-0----------0------|

|-2----------2------|-1----------0------|-------------------|

| I know,____ it feels good to have you back a-

|-------------------|-------------------|-------------------|

|-------------------|-10--10--10--10--10|-10~~~~~~~~~~~~~~~~|

|-------------------|-------------------|-------------------|

|-------------------|-------------------|-------------------|

|-------------------|-------------------|-------------------|

|-------------------|-------------------|-------------------|



|-------------------|-------------------|-------0----------0|

|-------6----------5|-------5----------3|-------------------|

|-----4----------4--|-----2----------2--|-----2----------1--|

|---5----------5----|---4----------4----|---3----------2----|

|-------------------|-------------------|-------------------|

|-3----------3------|-2----------2------|-1----------0------|

|gain and not know_ that one day baby, it's real-ly gon-na

|-------------------|-------------------|-------------------|

|-------------------|---------------10-/|12-----12h\10/12---|

|-------------------|-------------------|-------------------|

|-------------------|-------------------|-------------------|

|-------------------|-------------------|-------------------|

|-------------------|-------------------|-------------------|



|-------------------|-------------------|-------------------|

|-------8----------6|-------5----------6|-------5----------3|

|-----5----------5--|-----4----------4--|-----2----------2--|

|---7----------7----|---5----------5----|---4----------4----|

|-0----------0------|-------------------|-------------------|

|-------------------|-3----------3------|-2----------2------|

| grow_ yes it is,_ we gonna go walkin' through the park

|-------------------|-------------------|-------------------|

|10/12-\-10~~~~~~~~~|~~~~~~-------------|-------------------|

|-------------------|-------------------|-------------------|

|-------------------|-------------------|-------------------|

|-------------------|-------------------|-------------------|

|-------------------|-------------------|-------------------|



|------------------0|0--0--0--0--0---0--|3--3--3P0---3---3--|

|-----3-0----------0|0--1--1--0--1---1--|1--1--1-----1---1--|

|---2------------1--|0--2--2--0--2---2--|0--0--0-----0---0--|

|---3----------2----|0--2--2--0--2---2--|2--2--2-----2---2--|

|-------------------|0--0--0-----0---0--|0--0--0-----0---0--|

|-1----------0------|-------------------|-------------------|

| ev-ry' day.___ | Come what

| |Electric

|-------------------|-------------------|-------------------|

|--------10\8/10\8\5|-------------------|-------------------|

|-------------------|-------------------|-------------------|

|-------------------|---7--7-----7----7-|---5--5-----5----5-|

|-------------------|---7--7-----7----7-|---5--5-----5----5-|

|-------------------|0--5--5--0--5----5-|0--3--3--0--3----3-|

C

|0--2--2P0---2----2-|---0--0-----0---0--|0--0--0--0--0---0--|

|1--1--1-----1----1-|---1--1-----0---0--|0--1--1--0--1---1--|

|2--2--2-----2----2-|---2--2-----1---1--|0--2--2--0--2---2--|

|0--0--0-----0----0-|---3--3-----2---2--|0--2--2--0--2---2--|

|-------------------|------------2---2--|0--0--0---------0--|

|-------------------|1T----------0---0--|-------------------|

| may____ every day_____ oh_________ come what_

|-------------------|-------------------|-------------------|

|-------------------|-------------------|-------------------|

|-------------------|-------------------|-------------------|

|---4--4-----4----4-|---3--3-----2----2-|---7--7-----7----7-|

|---4--4-----4----4-|---3--3-----2----2-|---7--7-----7----7-|

|0--2--2--0--2----2-|0--1--1--0--0----0-|0--5--5--0--5----5-|



|3--3--3p0---3---3--|0--2--2p0---2---2--|---0--0-----0---0--|

|1--1--1-----1---1--|1--1--1-----1---1--|---1--1-----0---0--|

|0--0--0-----0---0--|2--2--2-----2---2--|---2--2-----1---1--|

|2--2--2-----2---2--|0--0--0-----0---0--|---3--3-----2---2--|

|0--0--0-----0---0--|-------------------|------------2---2--|

|-------------------|-------------------|1T----------0---0--|

|_ come__ what___ come what may__ I'm gonna leave you

|-------------------|-------------------|-------------------|

|-------------------|-------------------|-------------------|

|-------------------|-------------------|-------------------|

|---5--5-----5----5-|---4--4-----4----4-|---3--3-----2----2-|

|---5--5-----5----5-|---4--4-----4----4-|---3--3-----2----2-|

|0--3--3--0--3----3-|0--2--2--0--2----2-|0--1--1--0--0----0-|



Alternate back

|-------0-----------|-------------------|-------2-----------|

|------------------1|-------3----------1|------------------1|

|-----2----------2--|-----0----------0--|-----2----------2--|

|---2----------2----|---2----------2----|---0----------0----|

|0-----------0------|-------------------|-------------------|

|-------------------|-3----------3------|-2----------2------|

|go a-way__________|___________________________

|Acoustic 2

|rake

|--7--10-8-8-7-8-7-----|-------------------|

|-8----------------10-8|7-8-7---7----------|

|9---------------------|------9------7-----|

|----------------------|-------------------|

|----------------------|-------------------|

|----------------------|-------------------|



|-------------------|`------3----------1|-------0----------1|

|-------1----------0|-------------------|-------------------|

|-----2----------1--|-----2----------2--|-----0----------0--|

|---3----------2----|---2----------2----|---2----------2----|

|-------------------|-0----------0------|-------------------|

|-1----------0------|-------------------|-3----------3------|

| oh,______________

|-------------------|-------------------|-------------------|

|-------------------|-------------------|-------7B--7B------|

|-4-/-7-/5-4--5--4-2|-4-----------------|--------------8p7p5|

|-------------------|---2---------------|-------------------|

|-------------------|-------------------|-------------------|

|-------------------|-------------------|-------------------|



|-------0-----------|-------0----------0|-------3----------1|

|------------------3|-------------------|-------------------|

|-----2----------2--|-----2----------1--|-----2----------2--|

|---0----------0----|---3----------2----|---2----------2----|

|-------------------|-------------------|-0----------0------|

|-2----------2------|-1----------0------|-------------------|

|

|-------------------|---------------------|-------------------|

|-------------------|---------------------|-------------------|

|--7~~~~~~~---7R----|-7-7--7-5h-X-5h-5---7|-5-----------------|

|-------------------|---------------------|----7--------------|

|-------------------|---------------------|-------7-----------|

|-------------------|---------------------|-------------------|



|-------0----------1|-------0-----------|-------0-----------|

|-------------------|------------------3|------------------0|

|-----0----------0--|-----2----------2--|-----2----------1--|

|---2----------2----|---0----------0----|---3----------2----|

|-------------------|-------------------|-------------------|

|-3----------3------|-2----------2------|-1----------0------|

| It was real - ly

|-------------------|-------------------|-------------------|

|-------------------|-------------------|-------------------|

|-------------0-----|0------------------|--------0-------0--|

|-------0-1/2---1/2-|--1/2~~~~~~~~~-----|-0-1/2-----1/2-----|

|-0-1/3-------------|-------------------|-------------------|

|-------------------|-------------------|-------------------|



|-------------------|-------------------|-------------------|

|-------1----------1|-------1----------1|-------1----------1|

|-----2----------2--|-----0----------0--|-----2----------2--|

|---2----------2----|---2----------2----|---0----------0----|

|-0----------0------|-------------------|-------------------|

|-------------------|-3----------3------|-2----------2------|

| really good_ you__ made me

| rake rake rake rake rake rake rake rake

|-------------------|--7-10---7-10--7-10--7-|10--7-10---7-10---7-10---7-|

|-------------------|-8------8-----8-----8--|---8------8------8------8--|

|-------------------|9------9-----9-----9---|--9------9------9------9---|

|-0/2P---0----------|-----------------------|---------------------------|

|------3---3--0-----|-----------------------|---------------------------|

|-------------------|-----------------------|---------------------------|



(ooh,) (ooh,)______________________________

NOTE:really quietly, get louder

|-------------------|-------------------|-------3----------0|

|-------1----------0|-------1----------1|-------------------|

|-----2----------1--|-----2----------2--|-----0----------0--|

|---3----------2----|---2----------2----|---2----------2----|

|-------------------|-0----------0------|-------------------|

|-1----------0------|-------------------|-3----------3------|

|happy evry' single day,____

|10-8-7-8-7----7--------|---------------|-------------------|

|-----------10--10-8-7-8|--10-10\-------|-------------10--10|

|-----------------------|---------------|-------------------|

|-----------------------|---------------|-------------------|

|-----------------------|---------------|-------------------|

|-----------------------|---------------|-------------------|



|-------------------|-------------------|

|-------1----------1|-------1----------0|

|-----2----------2--|-----2----------1--|

|---0----------0----|---3----------2----|

|-------------------|-------------------|

|-2----------2------|-1----------0------|

| But now,___ I've got to go a -

|-------------------|-------------------|

|10---/---3---1--10-|-10~~~~~~~--10--10b|

|-------------------|-------------------|

|-------------------|-------------------|

|-------------------|-------------------|

|-------------------|-------------------|



|0--0--0--0--0---0--|3--3--3P----3---3--|0--2--2P----2---2--|

|0--1--1--0--1---1--|1--1--1-----1---1--|1--1--1-----1---1--|

|0--2--2--0--2---2--|0--0--0-----0---0--|2--2--2-----2---2--|

|0--2--2--0--2---2--|2--2--2-----2---2--|0--0--0-----0---0--|

|0--0--0-----0---0--|0--0--0-----0---0--|-------------------|

|-------------------|-------------------|-------------------|

|way_______________ oh,___

|Electric Repeat these 4

|-------------------|-------------------|-------------------| measures 4x.

|-------------------|-------------------|-------------------|

|-------------------|-------------------|-------------------|

|---7--7-----7----7-|---5--5-----5----5-|---4--4-----4----4-|

|---7--7-----7----7-|---5--5-----5----5-|---4--4-----4----4-|

|0--5--5--0--5----5-|0--3--3--0--3----3-|0--2--2--0--2----2-|



|---0--0-----0---0--|

|---1--1-----1---1--|

|---2--2-----2---2--|

|---3--3-----2---2--|

|------------0---0--|

|1T-----------------|

|oh____

|-------------------|

|-------------------|

|-------------------|

|---3--3-----2----2-|

|---3--3-----2----2-|

|0--1--1--0--0----0-|

Free Time Baby, baby, baby, baby.

|1------------------|-------------------|0-------------------|

|1------------------|-------------------|5-------------------|

|2------------------|-------------------|7-------------------|up stroke

|3------------------|-------------------|6-------------------|chord.

|3------------------|-------------------|7-------------------|

|1------------------|-------------------|0-------------------|

That's when it's cal-lin' me.________

up storke* *snap

|1------------------|*------------------------------|-------------|

|1------------------|0--*---------------------------|-------------|

|2------------------|X--2-4-p2-4hp2-4hp2-4h---p---2-|--4hp2--4h~~~|

|3------------------|2------------------------------|-------------|

|3------------------|2------------------------------|-------------|

|1------------------|0------------------------------|-------------|

I said that's when it's callin'_____ me______ back___ home___

|---5--5-5----5--5-5|5--5--5-5-5--5--5-5|

|5--5--5-5-4--4--4-4|3--3--3-3-3--3--3-3|

|-------------------|-------------------|

|-------------------|-------------------|

|4--4--4-4-3--3--3-3|2--2--2-2-1--1--1-1|

|-------------------|-------------------|

_________________________________________

|------------------0|------------------0|-------------|0----|

|-------0--------1--|-------0--------1--|-------0-----|0----|

|-----5--------2----|-----5--------2----|-----5-------|5----|

|---2---------------|---2---------------|---2---------|2----|

|0-----------0------|-0----------0------|-0-----------|0----|

|-------------------|-------------------|-------------|-----|









Led Zeppelin

Good Times Bad Times







This is somewhat an easy song once you get the patern and speed right.

The 2 guitar lines will not be

completly lined up, but I'll do my best.

There are 3 guitars elctric 6-strings 1, 2, and 3

Standard tuning.



Key:

\=slide down

/=slide up

BB=bend 2 full steps

Bb=bend 1 and a half step

B=bend a full step

b=bend a half step

^=bend one-forth step

R=return bend

~=vibrato

x=finger mute

H=hammer

PM=palm mute

p=pull off

Intro:Guitar 1





|------------------------------------------------------------|

|9--9--------9--9--------9--9--------9--9--------9--9--------|

|9--9--------9--9--------9--9--------9--9--------9--9--------|

|9--9--------9--9--------9--9--------9--9--------9--9--------|

|7--7--------7--7--------7--7--------7--7--------7--7--------|

|------------------------------------------------------------|

| In the

|Guitar 2

|------------------------------------------------------------|

|------------------------------------------------------------|

|9--9--------9--9--------9--9--------9--9--------------------|

|9--9--------9--9--------9--9--------9--9--------9--9--------|

|7--7--------7--7--------7--7--------7--7--------7--7--------|

|0--0--------0--0--------0--0--------0--0--------0--0--------|



Verse 1:

|----------------------------------------------------|

|9--9\-----------7---7-------------------9--9\-------|

|9--9\-----------7---7-------------------9--9\-------|

|9--9\---------7---7---7---4-7-----------9--9\-------|

|7--7\-------5-----------5-----4~~~5--6--7--7\-------|

|----------------------------------------------------|

|days of my youth I was told what it means to be a man.__

|

|----------------------------------------------------|

|----------------------------------------------------|

|9--9------------7---7-------------------9--9\-------|

|9--9----------7---7---7---4-7-----------9--9\-------|

|7--7--------5-----------5-----4~~~5--6--7--7\-------|

|0--0------------------------------------0--0\-------|



PM-|

|--------------------------------------------------------------------|

|----7---7-------------------9--9\---------------7-------------------|

|----7---7-------------------9--9\-----------7---7-7-----------------|

|--7---7---7---4-7-----------9--9\---------7---7---7---4-7-----------|

|5-----------5-----4~~~5--6--7--7\-------5-----------5-----4~~~5--6--|

|--------------------------------------------------------------------|

| And now I've reached that age I've tried to do all those things the best I

|

|--------------------------------------------------------------------|

|----7---7-----------------------------------7---7-7-----------------|

|----7---7-------------------9--9\-----------7---7-7-----------------|

|--7---7---7---4-7-----------9--9\---------7---7-------4-7-----------|

|5-----------5-----4~~~5--6--7--7\-------5-----------5-----4~~~5--6--|

|----------------------------0--0------------------------------------|





|----------------------------------------------------------------------------------------|

|9--9^-----------------------------------9--9\-------------------------------------------|

|9--9^-----------7---7-------------------9--9\-----------7---7---------------------------|

|9--9^---------7---7---7---4-7-----------9--9\---------7---7---7---4-7-------------------|

|7--7^-------5-----------5-----4~~~5--6--7--7\-------5-----------5-----4~~~5/-6/-7~~~~~~-|

|----------------------------------------------------------------------------------------|

|can._ No mat-ter how I try find my way in-to the same old jam.

| PM|

|---------------------------------------------------------------------------------------|

|--------------------------------------------------------7------------------------------|

|9--9^-----------7---7-------------------9--9^-----------7-----------------------9--9^--|

|9--9^---------7---7---7-----7-----------9--9^---------7---7---7---4-7-----------9--9^--|

|7--7^-------5-----------5-0---4~~~5--6--7--7^-------5-------5---5-----4~~~5--6--7--7^--|

|0--0------------------------------------0--0------------------------------------0--0---|



Chorus:

|------------------------------------------------------------------------------------------|

|------------------------------------------------------------------------------------------|

|-----7---7-----------------------2--------------------------------------------------------|

|-------7---7---4-7-------------------------------------------------------2-2--2----7\-5/7-|

|0-5H---------5-----4~~~5--6----------------------------------------------0-0--0--0--------|

|-----------------------------4/5---------------------------------------0------------------|

| Good times, bad times, you know I've had my share.___ Well, my

|

|----------------------------3/5--3--x-x----------------------------5\-x-x----10-----------|

|----------------------------3/5--5--x-x-7-12-12-10--10-10-0-3/5----5\-x-x-12-12----7-7-7\-|

|----7---7-------------------4/6--6--x-x-7-12-12-11--11-11-0-4/6----6\-x-x-12-12--7-7-7-7\-|

|0-7---7---7---4-7-----------5/7--7--x-x-7-12-12-12--12-12-0-5/7-7--7\-x-x-12-12--7-7-7-7\-|

|0-5---------5-----4~~~5--6--5/7--7--x-x-5-10-10-12--12-12-0-5/7-7--7\-x-x-10-10--5-5-5-5\-|

|----------------------------3/5--5------5-10-10-10--10-10---3/5-5--5\-----10--------------|





|----------------------------------------------------------|

|----------------------------------------------------------|

|--------------------------------------------------4\------|

|7/-9--9--9--9--9--9--9--7/9-9--9--9--7/9-9--9--9----------|

|--------------------------------------------------2\------|

|5/-7--7--7--7--7--7--7--5/7-7--7--7--5/7-7--7--7----------|

|woman left home for a brown eyed man But I still don't seem to care.___

|

|--------7-----------------------------7-------------------|

|--------7--14--14-14--12-12-12--------7-------------------|

|--------8--14--14-14--13-13-13--------8-------------------|

|--------9--14--14-14--14-14-14--------9----9--9--9--9--9\-|

|7--7----9--12--12-12--14-14-14--9--9--9----9--9--9--9--9\-|

|9--9-------12--12-12--12-12-12--7--7-------7--7--7--7--7\-|

|__3__|

Guitars 1 & 2

|--------------------------------------------------|

|--------------------------------------------------|

|--------11p9-11-x-4p2-4----------11p9-11--4p2-4p2-|

|--------11p9-11-x-4p2-4----------11p9-11--4p2-4p2-|

|4--4--------------------------4-------------------|

|2--2-----------------------2--2-------------------|

Six-teen I fell in love with a girl as sweet as could be. It



|----------------------------------------------------|

|----------------------------------------------------|

|--------11p9-11--4p2-4-x----------11p9-11--4p2--4p2-|

|--------11p9-11--4p2-4-x----------11p9-11--4p2--4p2-|

|---4---------------------------4--------------------|

|2--2------------------------2--2--------------------|

only took a couple of days 'till she was rid of me._ She



|---------------------------------------------------|

|---------------------------------------------------|

|--------11p9-11--4p2-4p2----------11p9-11--4p2-4p2-|

|--------11p9-11--4p2-4p2----------11p9-11--4p2-4p2-|

|---4---------------------------4-------------------|

|2--2------------------------2--2-------------------|

swore that she would be all mine and love me'till the end, but



|-----------------------------------------------------|

|-----------------------------------------------------|

|--------------------------------------------------*--|

|--------11p9-11--4-2-4-2----------11p9-11--4p2-4/(5)-|*Parenthesised notes

|--------11p9-11--4-2-4-2----------11p9-11--4p2-4/(5)-| are played by

|---4--------------------------4----------------------| Guitar 1 only.

|2--2-----------------------2--2----------------------|

when I whispered in her ear I lost another friend. Oh!



Guitar 1

|-------------------------------------------------------|

|4----4--4----------------------------------------------|

|4----4--4---2--2---1-1-----------4-4-----2-2-2---1-1---|

|4----4--4-2-2--2---2-2-0-4--4--4-4-4-0-2-2-2-2---2-2-0-|

|2----2--2-0------0-2-2---2--2--2-----0-0---0-0-2-2-2-0-|

|-----------------2-----------------------------0-------|

|Good times, bad times, you know I've had my share. Well, my

|Guitar 2

|-------------------------------------------0----0-0-0--|

|4-----4----4---2-2-2---0--------4----------2----0-0-0--|

|4-----4----4---2-2-2---1--------4-4-4-4----2----1-1-1--|

|4-----4----4---2-2-2---2--4--4--4-4-4-4----2----2-2-2--|

|2--2--2----2---0-0-0-2-2--2--2----2-2-2----0----2-2-2--|

|-------------0-------0-------------------0-----0-------|





|--------------7-7--------------------------------------------------------------|

|/6----6-------7-7----11-11-11-------------------------------------0------------|

|/6----6-------8-8----11-11-11--------------------------------------------------|

|/6----6----/9-9-9----11-11-11------------11--11--11--11----------------11------|

|/4----4----/9-9-9--9----9--9-----11--11--11--11--11--11--11--11\-------11------|

|-----------/7---7-------------9--9---9---9---9---9---9---9---9-\-------9-------|

|wo-man left home for a brown eyed man,__ but I still don't seem to care._____

|

|-------------------------------------------------------------------------------|

|4/6-6--6--6-6-12--x-10--10-10-10--------------------------------------------6--|

|4/6-6--6--6-6-11--x-11--11-11-11--------------------------------------------6--|

|4/6-6--6--6-6-11--x-11--11-11-11-9/11-11--11--11--11--11--11--11--11--11----6--|

|2/4-4--4--4-4-9---x-9---9--9--9--9/11-11--11--11--11--11--11--11--11--11----4--|

|---------------------------------7/9--9---9---9---9---9---9---9---9---9--------|



Solo:Guitar 1

|-------12--------12-12----12--------12-------------------|

|----12--------12-------12--------12----------------------|

|14B-------14B----------------14b-------14BR12H----14-12--|

|-----------------------------------------------14--------|

|---------------------------------------------------------|

|---------------------------------------------------------|

|

|Guitar 2

|--------------------------------------------------------|

|--------------------------------------------------------|

|----------------9-----------7--7--7---------------------|

|----------------9-----------7--7--7--7----7----7--------|

|7--------7------7---4/-5----5--5--5--7----7----7--------|

|0--------0---------------------------5----5----5--------|

|

|Guitar 3

|--------------------------------------------------------|

|*-------------------------------------------------------|

|9\------------------------------------------------------|

|9\------------------------------------------------------|

|7\------------------------------------------------------|

|--------------------------------------------------------|

*Gruadually slide on all of the guitar 3 parts.



|------------------------------------------------|

|---------------------------15-------------------|

|------12^----12-14-12-14b-----14--12H-14-12--0--|

|14-14-----14------------------------------------|

|------------------------------------------------|

|------------------------------------------------|

|

|

|------------------------------------------------|

|------------------------------------------------|

|----------9-----------7---7---7-----------------|

|----------9-----------7---7---7---7---7---------|

|7------7--7---4/----5-5---5---5---7---7---------|

|0------0--------------------------5---5---------|

|

|

|------------------------------------------------|

|------------------------------------------------|

|9\----------------------------------------------|

|9\----------------------------------------------|

|7\----------------------------------------------|

|------------------------------------------------|



|_____*_______|

|--|-------------|------------------|

|20BB-------------17-17-17~~~20-17--|

|-----------------------------------| *hold the bend then evenly release it.

|-----------------------------------|

|-----------------------------------|

|-----------------------------------|

|

|

|-----------------------------------|

|-----------------------------------|

|------9-------7--7--7--------------|

|------9-------7--7--7--7--7--7--7--|

|7--7--7---4/5-5--5--5--7--7--7--7--|

|0--0-------------------5--5--5--5--|

|

|

|-----------------------------------|

|-----------------------------------|

|9\---------------------------------|

|9\---------------------------------|

|7\---------------------------------|

|-----------------------------------|



|____3___|

|---------------|*--*-*--|-------------------|

|20B--20--17----17-20-17H----17--------------|

|------------19-----------19----19-19B~x-x-x-| *these 3 notes are

|--------------------------------------x-x-x-| thirdy second

|--------------------------------------------| notes

|--------------------------------------------|

|

|

|--------------------------------------------|

|--------------------------------------------|

|--------9--------7--7--7--------------------|

|--------9--------7--7--7---7---7---7---7----|

|7---7---7----4/5-5--5--5---7---7---7---7----|

|0---0----------------------5---5---5---5----|

|

|

|--------------------------------------------|

|--------------------------------------------|

|9\------------------------------------------|

|9\------------------------------------------|

|7\------------------------------------------|

|--------------------------------------------|





|-------------------------------------------------------------12----12-|

|-------------------------------------------12----12-15p12-15-12-15----|

|-------------------------12----12-14p12-14----14----------------------|

|------12----12-14p12-14H-12-14----------------------------------------|

|14-14----14-----------------------------------------------------------|

|----------------------------------------------------------------------|

|

|

|----------------------------------------------------------------------|

|----------------------------------------------------------------------|

|------------9------------7----7----7----------------------------------|

|------------9------------7----7----7----7----7----7----7--------------|

|7-----7-----7-------4/5--5----5----5----7----7----7----7--------------|

|0-----0---------------------------------5----5----5----5--------------|

|

|

|-----------------------------------------------------------------------|

|-----------------------------------------------------------------------|

|9\---------------------------------------------------------------------|

|9\---------------------------------------------------------------------|

|7\---------------------------------------------------------------------|

|-----------------------------------------------------------------------|



NOTE:The 2nd guitar is to be played

with guitar 1 evenly but the solo is

big and I can't fit all of guitar 1's

stuff to match the 2nd guitar.



|15B--15~15^~----------17b-17B-17b-17B-17b-17B-|

|------------17-15^-17-------------------------|

|----------------------------------------------|

|----------------------------------------------|

|----------------------------------------------|

|----------------------------------------------|

|

|

|----------------------------------------------|

|----------------------------------------------|

|---------9----------7---7---------------------|

|---------9----------7---7----7---7---7---7----|

|7----7---7----4/5---5---5----7---7---7---7----|

|0----0-----------------------5---5---5---5----|

|

|

|----------------------------------------------|

|----------------------------------------------|

|9\--------------------------------------------|

|9\--------------------------------------------|

|7\--------------------------------------------|

|----------------------------------------------|





|17B-15----15-17--17p16--17--16-17p16-17B-15b--|

|-------17-------------------------------------|

|----------------------------------------------|

|----------------------------------------------|

|----------------------------------------------|

|----------------------------------------------|

|

|

|----------------------------------------------|

|----------------------------------------------|

|-------------9----------------7--7------------|

|-------------9----------------7--7--7----7----|

|7------7-----7-------4-/-5----5--5--7----7----|

|0------0--------------------------------------|

|

|

|----------------------------------------------|

|----------------------------------------------|

|9\--------------------------------------------|

|9\--------------------------------------------|

|7\--------------------------------------------|

|----------------------------------------------|





|----------------------------------------|

|17~~17~17~17-15B-17BB--------15~~~~~~~~-|

|---------------------
Get this song at amazon.com      Ebay     Ringtones Ringtones  


Learn to play: Songwriting, Piano, Harmonica, Guitar
More Led Zeppelin lyrics available at Muzikum

Related Led Zeppelin Tabs

Wanna Whole Lotta Love tabs
Rain Song Intro tabs
Ramblin Man tabs
Walters Walk tabs
White Summer/black Mountainside tabs
Dazed And Confused Solo tabs
Black Mountain Side tabs
Royal Orleans tabs
Black Dog2 tabs
Ozone Baby tabs
Led Zeppelin 3 Album tabs
The Immagrant Song tabs
The Girl I Love Bbc Sessions tabs
Crunge Bass tabs
Street Corner Girl Bass tabs
Yallah tabs
The Ocean (live Version) tabs
Most High tabs
The Battle Of Evermore tabs
Black Dog tabs


Guitar Tabs









All tabs are property and copyright of their owners. All tabs provided for educational purposes only. Privacy Policy, DMCA

Online converter - videoconverter.com