Led Zeppelin

Ramble On (complete) Bass Tabs



More from Led Zeppelin

Led Zeppelin Tabs
Led Zeppelin Chords
Led Zeppelin Bass
Led Zeppelin Lyrics




JPJ!
I forgot the repeats dont hate me..
G :| ----------------|---------------- 1|----------------|
D :|*----------------|----------------*||------9---------|
A :|*----------------|----------------*||7---------------|
E :| ----------------|---------------- ||----------------|

G :|-----9-h11---9-----|-----12-h13---11---9-|-------------------9---|
D :|7------------------|---------------------|--11---9--x7-9-/11---11|
A :|-------------------|7--------------------|-----------------------|
E :|-------------------|---------------------|-----------------------|

G :| ----------------|-----9-h11---9------|-----12-h13---11---9-|
D :|*------9---------|7----------------11-|---------------------|
A :|*7---------------|--------------------|7--------------------|
E :| ----------------|--------------------|---------------------|

G :|------------------9--- |
D :|--11---9--x7-9-11---11*|
A :|----------------------*|
E :|---------------------- |

G :|------------------|------------------ |
D :|------------------|----------2-2-----*|
A :|------------------|0---x-4-------4-2-*|
E :|0-----2---4---(4)-|------------------ |


G :| -----------------|--------9-----7-(7)--7-------7-9 ||----------------|
D :|*------9-9--------|7-7-7-7---7-7------7---7-7-7----*||------9---------|
A :|*----7-----------7|--------------------------------*||7---------------|
E :| 0---------0-4-7--|-------------------------------- ||----------------|

G :|-----9-h11---9------|-----12-h13---11---9-|------------------9---|
D :|7----------------11-|---------------------|--11---9--x7-9-11---11|
A :|--------------------|7--------------------|----------------------|
E :|--------------------|---------------------|----------------------|

G :|----------------|-----9-h11---9------|-----12-h13---11---9-|
D :|------9---------|7----------------11-|---------------------|
A :|7---------------|--------------------|7--------------------|
E :|----------------|--------------------|---------------------|

G :|------------------9---|------------------|-----9-h11-(11)-9------|
D :|--11---9--x7-9-11---11|------9-(9)-------|7-----------------11-9-|
A :|----------------------|7-----------------|-----------------------|
E :|----------------------|------------------|-----------------------|

G :|----x12-h13-(13)-11---9-|(9)-------------------9----|----------------|
D :|----x-------------------|----11---9-(9)x7-9-11---11-|------9---------|
A :|7---x-------------------|---------------------------|7---------------|
E :|----x-------------------|---------------------------|----------------|

G :|-----9-h11---9------|-----12-h13---11---9-|------------------9---|
D :|7----------------11-|---------------------|--11---9--x7-9-11---11|
A :|--------------------|7--------------------|----------------------|
E :|--------------------|---------------------|----------------------|

G :|--------9-9-(9)-------|--------9-----7-(7)--7-------7-9|
D :|----------------------|7-7-7-7---7-7------7---7-7-7----|
A :|7-7-7-7--------------7|--------------------------------|
E :|---------------0-4-7--|--------------------------------|

G :| ---0-9------------|--------9-----7-(7)--7-------7-9 |
D :|*------------------|7-7-7-7---7-7------7---7-7-7----*|
A :|*7------7-7-------7|--------------------------------*|
E :| -----------0-4-7--|-------------------------------- |

G :|---------------------|----------7-9-7-9-9-9----|
D :|7---7-5-7-7-7--------|--5-7-7-7-------------5-7|
A :|--------------5-7-7-7|0------------------------|
E :|---------------------|-------------------------|

G :|-------------------------|------------------7-9-|----------------|
D :|7--7-7-7-(7)7-7-7--------|5-7-7-7-7-7-7-9-9-----|------9---------|
A :|------------------5-7-5-7|----------------------|7---------------|
E :|-------------------------|----------------------|----------------|

G :|-----9-h11---9------|-----12-h13---11---9-|------------------9---|
D :|7----------------11-|---------------------|--11---9--x7-9-11---11|
A :|--------------------|7--------------------|----------------------|
E :|--------------------|---------------------|----------------------|

G :|----------------|-----9-h11---9------|-----12-h13---11---9-|
D :|------9---------|7----------------11-|---------------------|
A :|7---------------|--------------------|7--------------------|
E :|----------------|--------------------|---------------------|

G :|------------------9---|| -----------------|
D :|--11---9--x7-9-11---11||*------9-9--------|
A :|----------------------||*----7-----------7|
E :|----------------------|| 0---------0-4-7--|

G :|--------9-----7-(7)--7-------7-9 || Repeat Five Times
D :|7-7-7-7---7-7------7---7-7-7----*||
A :|--------------------------------*||
E :|-------------------------------- ||



Get this song at amazon.com      Ebay     Ringtones Ringtones  


Learn to play: Songwriting, Piano, Harmonica, Guitar
More Led Zeppelin lyrics available at Muzikum

Related Led Zeppelin Bass Tabs

Rock & Roll bass
Since Ive Been Loving You bass
Ocean (perfect Riff) bass
Communitcation Breakdown bass
No Quarter bass
Street corner girl bass
When The Levee Breaks bass
Dancin Days bass
California Girl bass
Carouselambra bass
Communication Breakdown bass
The Ocean (100% Correct) bass
Black Country Woman bass
In The Light bass
Hart Breaker bass
South Bound Suarez bass
California Girls bass
Achilles Last Stand bass
White Summer/black Mountain Side bass
Whole Lotta Love bass


Guitar Tabs









All tabs are property and copyright of their owners. All tabs provided for educational purposes only. Privacy Policy, DMCA

Online converter - videoconverter.com