Led Zeppelin

Physical Graffiti Tabs



More from Led Zeppelin

Led Zeppelin Tabs
Led Zeppelin Chords
Led Zeppelin Bass
Led Zeppelin Lyrics



THIS IS NOT MY WORK! I GATHERED IT FROM PREVIOUSLY WRITTEN TABS FOR THE CONVENIENCE OF EVERYONE!





DISC 1



-----------

Custard Pie

-----------

Riff 1

======

1:---------------------------------|

2:-2-------------------2-----2-----|

3:-2-------------------2-----2-----|

4:-2-2-2-4-2-4-5-------2-----2-----|

5:-0-0-0-0-0-0-0-------0-----0-----|

6:-------------------------3-------|



1:---------------------------------|

2:-2-------------------2-----2-----|

3:-2-------------------2-----2-----|

4:-2-2-2-4-2-4-5-------2-----2-----|

5:-0-0-0-0-0-0-0-------0-----0-----|

6:-------------------------3-------|





Riff 2

======

1:---------------------------------|

2:---------------------------------|

3:-7-------------------------------|

4:-7-------------------------------|

5:-5-------------------------------|

6:---------------------------------|



1:---------------------------------|

2:---------------------------------|

3:---7-6-5-----------5-4-3---------|

4:---7-6-5-----------5-4-3---------|

5:---5-4-3-----------3-2-1---------|

6:---------------------------------|





Riff 3

======



1:---------------------------------|

2:-5---------------------------6---|

3:-4---------------------------7---|

4:-2---------------------------5---|

5:-0---------------------------0---|

6:---------------------------------|



1:---------------------------------|

2:---------------------------------|

3:---------------------------------|

4:---------------------3-------5---|

5:---------------------3-------5---|

6:---------------------1-------3---|





SONG STRUCTURE

==============

Intro

Riff 1 x2

Verse 1

Riff 1 x2

Riff 2

Riff 1

Riff 3

Riff 1

Verse 2

Riff 1 x2

Riff 2

Riff 1

Riff 3

Riff 1

Verse 3

Riff 1 x2

Riff 2

Riff 1

Riff 3

Guitar Solo

Riff 1 x3

Riff 2

Riff 1

Riff 3

Riff 1

Verse 4

Riff 1 x2

Riff 2

Riff 1

Riff 3

Riff 1

Ending

Riff 1 until end



---------

The Rover

----------------------------------------------------------------------|

|----------------|----------------|----------------|------------------|

|----------------|----------------|----------------|------------------|

|----------------|----------------|----------------|------------------|

|----------------|----------------|----------------|-------------2-2--|

|----------------|----------------|----------------|-------------2-2--|

|----------------|----------------|----------------|-------------0-0--|



|----------------|----------------|----------------|---2p0--0h2p0--0|

|----------------|----------------|----------------|-------5------5-|

|----------------|----------------|----------------|----------------|

|----------------|----------------|----------------|----------------|

|-2--------------|---------------5|-/7-------------|----------------|

|-0--------------|-3-3-5-5-3-5-3--|----------------|----------------|



|----------------|----------------|----------------|-----0----------|

|----------------|----------------|----------------|-----7p5--------|

|----------------|----------------|----------------|---------0------|

|-2--------------|----------------|----------------|---------7\5-2p0|

|-2--------------|---------------5|-/7-----------p0|----------------|

|-0--------------|-3-3-5-5-3-5-3--|----------------|----------------|



|----------------|----------------|----------------|----------------|

|----------------|----------------|----------------|----------------|

|---------3b-0---|----------------|---------3b-0---|----------------|

|----4b-2------2-|-2-0---0-2------|----4b-2------2-|-2-0---0-2------|

|----------------|----------------|----------------|----------------|

|-0--------------|-----------2b-0-|-0--------------|-----------2b-0-|



|----------------|----------------|----------------|----------------|

|----------------|----------------|----------------|----------------|

|---------3b-0---|----------------|---------3b-0---|----------------|

|----4b-2------2-|-2-0---0-2------|----4b-2------2-|-2-0---0-2------|

|----------------|----------------|----------------|----------------|

|-0--------------|-----------2b-0-|-0--------------|-----------2b-0-|



|----------------|----------------|----------------|----------------|

|----------------|----------------|----------------|----------------|

|--11--11\9-9--9-|-7----------7/12|\11-11-11-14-14-|-9----------9/12|

|--11--11\9-9--9-|-7----------7/12|\11-11-11-14-14-|-9----------9/12|

|---9---9\7-7--7-|-5----------5/10|\-9--9--9-12-12-|-7----------7/10|

|----------------|----------------|----------------|----------------|



|----------------|----------------|----------------|----------------|

|----------------|----------------|----------------|----------------|

|-\11--11\9-9--9-|-7----------7/12|\11-11-11-14-14-|-9----------9/12|

|-\11--11\9-9--9-|-7----------7/12|\11-11-11-14-14-|-9----------9/12|

|-\-9---9\7-7--7-|-5----------5/10|\-9--9--9-12-12-|-7----------7/10|

|----------------|----------------|----------------|----------------|



|----------------|----------------|----------------|----------------|

|----------------|----------------|----------------|----------------|

|\11-11-11--9--9-|-7--7-7-7\--6-6-|-4--4--4-4------|--------0-------|

|\11-11-11--9--9-|-7--7-7-7\--6-6-|-4--4--4-4------|----------------|

|\-9--9--9--7--7-|-5--5-5-5\--4-4-|-2--2--2-2------|--2-1-0---------|

|----------------|----------------|----------------|----------3-2-0-|



|----------------|----------------|----------------|----------------|

|----------------|----------------|----------------|---2b---0-------|

|---------3b-0---|----------------|---------3b-0---|----------0-----|

|----4b-2------2-|--2-0---0-2-----|----4b-2------2~|------------2---|

|----------------|----------------|----------------|----------------|

|-0--------------|-----------2b-0-|-0--------------|--------------0-|



|----------------|----------------|----------------|----------------|

|----------------|----------------|----------------|----------------|

|---------3b-0---|----------------|---------3b-0---|----------------|

|----4b-2------2-|--2-0---0-2-----|----4b-2------2-|--2-0---0-2-----|

|----------------|----------------|----------------|----------------|

|-0--------------|-----------2b-0-|-0--------------|-----------2b-0-|



|----------------|----------------|--------------9-|-7--------------|

|------10------9-|--7-------------|------10--------|----------------|

|----11------9---|----------------|----11-----11---|----------------|

|4-11------9-----|----------------|--11-----11-----|----------------|

|4---------------|----------------|----------------|----------------|

|2---------------|----------------|----------------|----------------|

| | | | |

|----------------|----------------|----------------|----------------|

|----------------|----------------|----------------|----------------|

|--11--11\9-9--9-|-7----------7/12|\11-11-11-14-14-|-9----------9/12|

|--11--11\9-9--9-|-7----------7/12|\11-11-11-14-14-|-9----------9/12|

|---9---9\7-7--7-|-5----------5/10|\-9--9--9-12-12-|-7-(10)r9---7/10|

|----------------|----------------|----------------|----------------|



|----------------|----------------|--------------9-|-7--------------|

|------10------9-|--7-------------|------10--------|----------------|

|----11------9---|----------------|----11-----11---|----------------|

|--11------9-----|----------------|--11-----11-----|----------------|

|----------------|----------------|----------------|----------------|

|----------------|----------------|----------------|----------------|

| | | | |

|----------------|----------------|----------------|----------------|

|----------------|----------------|----------------|----------------|

|-\11--11\9-9--9-|-7----------7/12|\11-11-11-14-14-|-9----------9/12|

|-\11--11\9-9--9-|-7----------7/12|\11-11-11-14-14-|-9----------9/12|

|-\-9---9\7-7--7-|-5----------5/10|\-9--9--9-12-12-|-7----------7/10|

|----------------|----------------|----------------|----------------|



|----------------|----------------|----------------|----------------|

|------10------9-|------7-------5-|------3---------|----------------|

|----11------9---|----7-------6---|----4-----------|----------------|

|--11------9-----|--7-------6-----|--4-------------|----------------|

|----------------|----------------|----------------|----------------|

|----------------|----------------|----------------|----------------|

| | | | |

|----------------|----------------|----------------|----------------|

|----------------|----------------|----------------|----------------|

|\11-11-11--9--9-|-7--7-7-7\--6-6-|-4--4--4-4------|----------------|

|\11-11-11--9--9-|-7--7-7-7\--6-6-|-4--4--4-4------|--------2b------|

|\-9--9--9--7--7-|-5--5-5-5\--4-4-|-2--2--2-2------|--2-1-0---------|

|----------------|----------------|----------------|----------3-2-0-|



|----------------|----------------|----------------|----------------|

|----------------|----------------|----------------|---2b---0-------|

|---------3b-0---|----------------|---------3b-0---|----------0-----|

|----4b-2------2-|--2-0---0-2-----|----4b-2------2~|------------2---|

|----------------|----------------|----------------|----------------|

|-0--------------|-----------2b-0-|-0--------------|--------------0-|



|----------------|----------------|----------------|----------------|

|----------------|----------------|----------------|----------------|

|---------3b-0---|----------------|---------3b-0---|----------------|

|----4b-2------2-|--2-0---0-2-----|----4b-2------2-|--2-0---0-2-----|

|----------------|----------------|----------------|----------------|

|-0--------------|-----------2b-0-|-0--------------|-----------2b-0-|



|----------------|----------------|--------------9-|-7--------------|

|------10------9-|--7-------------|------10--------|----------------|

|----11------9---|----------------|----11-----11---|----------------|

|4-11------9-----|----------------|--11-----11-----|----------------|

|4---------------|----------------|----------------|----------------|

|2---------------|----------------|----------------|----------------|

| | | | |

|----------------|----------------|----------------|----------------|

|----------------|----------------|----------------|----------------|

|--11--11\9-9--9-|-7----------7/12|\11-11-11-14-14-|-9----------9/12|

|--11--11\9-9--9-|-7----------7/12|\11-11-11-14-14-|-9----------9/12|

|---9---9\7-7--7-|-5----------5/10|\-9--9--9-12-12-|-7-(10)r9---7/10|

|----------------|----------------|----------------|----------------|



|----------------|----------------|--------------9-|-7--------------|

|------10------9-|--7-------------|------10--------|----------------|

|----11------9---|----------------|----11-----11---|----------------|

|--11------9-----|----------------|--11-----11-----|----------------|

|----------------|----------------|----------------|----------------|

|----------------|----------------|----------------|----------------|

| | | | |

|----------------|----------------|----------------|----------------|

|----------------|----------------|----------------|----------------|

|-\11--11\9-9--9-|-7----------7/12|\11-11-11-14-14-|-9-----9-11-9/12|

|-\11--11\9-9--9-|-7----------7/12|\11-11-11-14-14-|-9--9h11-11-9/12|

|-\-9---9\7-7--7-|-5----------5/10|\-9--9--9-12-12-|-79h11----9-7/10|

|----------------|----------------|----------------|----------------|



|----------------|----------------|----------------|----------------|

|------10------9-|------7-------5-|------3---------|----------------|

|----11------9---|----7-------6---|----4-----------|----------------|

|--11------9-----|--7-------6-----|--4-------------|----------------|

|----------------|----------------|----------------|----------------|

|----------------|----------------|----------------|----------------|

| | | | |

|----------------|----------------|----------------|----------------|

|----------------|----------------|----------------|----------------|

|\11-11-11--9--9-|-7--7-7-7\--6-6-|-4--4--4-4------|----------------|

|\11-11-11--9--9-|-7--7-7-7\--6-6-|-4--4--4-4------|--------2b------|

|\-9--9--9--7--7-|-5--5-5-5\--4-4-|-2--2--2-2------|--2-1-0---------|

|----------------|----------------|----------------|----------3-2-0-|



|----------------|----------------|----------------|----------------|

|-7-7-7--7--9-9\-|----------------|-7-7-7--7--9-9\-|----------------|

|-7-7-7--7--9-9\-|----------------|-7-7-7--7--9-9\-|----------------|

|-7-7-7--7--9-9\-|----------------|-7-7-7--7--9-9\-|----------------|

|-5-5-5--5--7-7\-|----------------|-5-5-5--5--7-7\-|----------------|

|----------------|-----------0----|----------------|-----------0----|



|----------------|----------------|----------------|----------------|

|-7-7-7--7--9-9\-|----------------|-7-7-7--7--9-9\-|----------------|

|-7-7-7--7--9-9\-|----------------|-7-7-7--7--9-9\-|----------------|

|-7-7-7--7--9-9\-|----------------|-7-7-7--7--9-9\-|----------------|

|-5-5-5--5--7-7\-|----------------|-5-5-5--5--7-7\-|----------------|

|----------------|-----------0----|----------------|-----------0----|



|----------------|----------------|----------------|----------------|

|----------------|----------------|----------------|----------------|

|----------------|----------------|----------------|--------------9-|

|----------------|----------------|----------------|--------9h11----|

|----------------|----------------|----------------|--9h11----------|

|----------------|----------------|----------------|----------------|

| | | | |

|----------------|----------------|----------------|----------------|

|-7-7-7--7--9-9\-|----------------|-7-7-7--7--9-9\-|----------------|

|-7-7-7--7--9-9\-|----------------|-7-7-7--7--9-9\-|----------------|

|-7-7-7--7--9-9\-|----------------|-7-7-7--7--9-9\-|----------------|

|-5-5-5--5--7-7\-|----------------|-5-5-5--5--7-7\-|----------------|

|----------------|-----------0----|----------------|-----------0----|



|----------------|----------------|----------------|----------------|

|----------------|----------------|----------------|----------------|

|----------------|----------------|----------------|-----------9-11\|

|----------------|----------------|----------------|------9h11------|

|----------------|----------------|----------------|-9h11-----------|

|----------------|----------------|----------------|----------------|

| | | | |

|----------------|----------------|----------------|----------------|

|-7-7-7--7--9-9\-|----------------|-7-7-7--7--9-9\-|----------------|

|-7-7-7--7--9-9\-|----------------|-7-7-7--7--9-9\-|----------------|

|-7-7-7--7--9-9\-|----------------|-7-7-7--7--9-9\-|----------------|

|-5-5-5--5--7-7\-|----------------|-5-5-5--5--7-7\-|----------------|

|----------------|-----------0----|----------------|-----------0----|



|----------------|----------------|----------------|----------------|

|----------------|----------------|----------------|9h10p9--9-10-12-|

|----------------|----------------|---------9--11--|------11--------|

|--------------7-|-9//11-9h11p9-7-|----9/11--------|----------------|

|----------7-9---|----------------|----------------|----------------|

|----5/7h9-------|----------------|----------------|----------------|



|-9--------------|----------------|----------------|-----------9----|

|---12-10b-9-----|----------------|---------9h10p9-|---9-10-12---12-|

|------------11-9|--------9-11-11-|-----9-11-------|-11-------------|

|----------------|---9h11---------|-9h11-----------|----------------|

|----------------|----------------|----------------|----------------|

|----------------|----------------|----------------|----------------|



|----------------|----------------|----------------|----------------|

|-9h10p9----9----|----------------|----------------|----------------|

|--------11--11p9|-11p9----9----9-|----------------|----------------|

|----------------|------11---11---|-11\9-x-7--11p9-|-7------7-9//11-|

|----------------|----------------|----------------|------9---------|

|----------------|----------------|----------------|----------------|



|----------------|----------------|----------------|---------14-----|

|----------------|----------------|----------------|------14----17--|

|-9-9-9-9--------|-9-9-9-9--------|-9-9-9-9--------|---16b----------|

|-----------9/11-|----------9//11-|----------------|----------------|

|----------------|----------------|----------------|----------------|

|----------------|----------------|----------------|----------------|



|-----17---------|-17----------17-|--------17------|----------------|

|-17b----r17-14--|----r17-14------|-r17-14----r17--|14-14-----------|

|----------------|----------------|----------------|-----16-14------|

|----------------|----------------|----------------|----------16-14-|

|----------------|----------------|----------------|----------------|

|----------------|----------------|----------------|----------------|



|----------------|----------------|----------------|----------------|

|----------------|----------------|----------------|----------------|

|---------3b-0---|----------------|---------3b-0---|-3b--3b--0------|

|----4b-2------2-|--2-0---0-2-----|----4b-2------2-|------------2---|

|----------------|----------------|----------------|----------------|

|-0--------------|-----------2b-0-|-0--------------|--------------0-|



|----------------|----------------|----------------|--------------0-|

|----------------|----------------|----------------|-------------0--|

|---------3b-0---|----------------|---------3b-0---|---------3b-0---|

|----4b-2------2-|--2-0---0-2-----|----4b-2------2-|-4b-4b-2--------|

|----------------|----------------|----------------|----------------|

|-0--------------|-----------2b-0-|-0--------------|----------------|



|----------------|----------------|--------------9-|-7--------------|

|------10------9-|--7-------------|------10--------|----------------|

|----11------9---|----------------|----11-----11---|----------------|

|--11------9-----|----------------|--11-----11-----|----------------|

|----------------|----------------|----------------|----------------|

|----------------|----------------|----------------|----------------|

| | | | |

|----------------|----------------|----------------|----------------|

|----------------|----------------|----------------|----------------|

|-\11--11\9-9--9-|-7----------7/12|\11-11-11-14-14-|-9-----9-11-9/12|

|-\11--11\9-9--9-|-7----------7/12|\11-11-11-14-14-|-9--9h11-11-9/12|

|-\-9---9\7-7--7-|-5----------5/10|\-9--9--9-12-12-|-79h11----9-7/10|

|----------------|----------------|----------------|----------------|



|----------------|----------------|--------------9-|-7--------------|

|------10------9-|--7-------------|------10--------|----------------|

|----11------9---|----------------|----11-----11---|----------------|

|4-11------9-----|----------------|--11-----11-----|----------------|

|4---------------|----------------|----------------|----------------|

|2---------------|----------------|----------------|----------------|

| | | | |

|----------------|----------------|----------------|----------------|

|----------------|----------------|----------------|----------------|

|--11--11\9-9--9-|-7----------7/12|\11-11-11-14-14-|-9----------9/12|

|--11--11\9-9--9-|-7----------7/12|\11-11-11-14-14-|-9----------9/12|

|---9---9\7-7--7-|-5----------5/10|\-9--9--9-12-12-|-7----------7/10|

|----------------|----------------|----------------|----------------|



|----------------|----------------|----------------|----------------|

|------10------9-|------7-------5-|------3---------|----------------|

|----11------9---|----7-------6---|----4-----------|----------------|

|--11------9-----|--7-------6-----|--4-------------|----------------|

|----------------|----------------|----------------|----------------|

|----------------|----------------|----------------|----------------|

| | | | |

|----------------|----------------|----------------|----------------|

|----------------|----------------|----------------|----------------|

|\11-11-11--9--9-|-7--7-7-7\--6-6-|-4--4--4-4------|----------------|

|\11-11-11--9--9-|-7--7-7-7\--6-6-|-4--4--4-4------|--------2b------|

|\-9--9--9--7--7-|-5--5-5-5\--4-4-|-2--2--2-2------|--2-1-0---------|

|----------------|----------------|----------------|----------3-2-0-|



|----------------|----------------|----------------|----------------|

|----------------|----------------|----------------|----------------|

|---------3b-0---|----------------|---------3b-0---|----------------|

|----4b-2------2-|-2-0---0-2------|----4b-2------2-|-2-0---0-2------|

|----------------|----------------|----------------|----------------|

|-0--------------|-----------2b-0-|-0--------------|-----------2b-0-|



|----------------|----------------|----------------|--------------0-|

|----------------|----------------|----------------|---------2----5-|

|---------3b-0---|----------------|---------3b-0---|-------3b--2h3--|

|----4b-2------2-|-2-0---0-2------|----4b-2------2-|-4b-4b----------|

|----------------|----------------|----------------|----------------|

|-0--------------|-----------2b-0-|-0--------------|----------------|



|----------------|----------------|--------------9-|-7--------------|

|------10------9-|--7-------------|------10--------|----------------|

|----11------9---|----------------|----11-----11---|----------------|

|--11------9-----|----------------|--11-----11-----|----------------|

|----------------|----------------|----------------|----------------|

|----------------|----------------|----------------|----------------|

| | | | |

|----------------|----------------|----------------|----------------|

|----------------|----------------|----------------|----------------|

|-\11--11\9-9--9-|-7----------7/12|\11-11-11-14-14-|-9-----9-11-9/12|

|-\11--11\9-9--9-|-7----------7/12|\11-11-11-14-14-|-9--9h11-11-9/12|

|-\-9---9\7-7--7-|-5----------5/10|\-9--9--9-12-12-|-79h11----9-7/10|

|----------------|----------------|----------------|----------------|



|----------------|----------------|--------------9-|-7--------------|

|------10------9-|--7-------------|------10--------|----------------|

|----11------9---|----------------|----11-----11---|----------------|

|4-11------9-----|----------------|--11-----11-----|----------------|

|4---------------|----------------|----------------|----------------|

|2---------------|----------------|----------------|----------------|

| | | | |

|----------------|----------------|----------------|----------------|

|----------------|----------------|----------------|----------------|

|--11--11\9-9--9-|-7----------7/12|\11-11-11-14-14-|-9----------9/12|

|--11--11\9-9--9-|-7----------7/12|\11-11-11-14-14-|-9----------9/12|

|---9---9\7-7--7-|-5----------5/10|\-9--9--9-12-12-|-7----------7/10|

|----------------|----------------|----------------|----------------|



|----------------|----------------|----------------|----------------|

|------10------9-|------7-------5-|------3---------|----------------|

|----11------9---|----7-------6---|----4-----------|----------------|

|--11------9-----|--7-------6-----|--4-------------|----------------|

|----------------|----------------|----------------|----------------|

|----------------|----------------|----------------|----------------|

| | | | |

|----------------|----------------|----------------|----------------|

|----------------|----------------|----------------|----------------|

|\11-11-11--9--9-|-7--7-7-7\--6-6-|-4--4--4-4------|----------------|

|\11-11-11--9--9-|-7--7-7-7\--6-6-|-4--4--4-4------|--------2b------|

|\-9--9--9--7--7-|-5--5-5-5\--4-4-|-2--2--2-2------|--2-1-0---------|

|----------------|----------------|----------------|----------3-2-0-|



|----------------|----------------|----------------|----------------|

|----------------|----------------|----------------|---2b---0-------|

|---------3b-0---|----------------|---------3b-0---|----------0-----|

|----4b-2------2-|--2-0---0-2-----|----4b-2------2~|------------2---|

|----------------|----------------|----------------|----------------|

|-0--------------|-----------2b-0-|-0--------------|--------------0-|



|----------------|----------------|----------------|----------------|

|----------------|----------------|------------0---|----------------|

|---------3b-0---|----------------|---------3b-3b--|-0-0------------|

|----4b-2------2-|--2-0---0-2-----|----4b-2--------|-----2-0--------|

|----------------|----------------|----------------|----------------|

|-0--------------|-----------2b-0-|-0--------------|----------------|



|----------------|----------------|----------------|----------0---0-|

|----------------|----------------|----------------|---------0---0-0|

|-------3b----2--|-------3b----2--|-------3b----2--|------3b--(4)---|

|-4b-4b----6b----|-4b-4b----6b----|-4b-4b----6b----|-4b-4b----------|

|----------------|----------------|----------------|----------------|

|----------------|----------------|----------------|----------------|



|----------------|----------------|----------------|----------------|

|----------------|----------------|----------------|----------------|

|----------------|----------------|-------------0--|-----0h2-2p0----|

|-----2-2-2-4-2--|-2-0-----0h2----|-0---0-0---0----|-0h2---------2--|

|-0h2------------|----------------|----------------|----------------|

|--------------0-|-----0----------|----------------|--------------0-|



|----------------|----------------|----------------|----------------|

|----------------|----------------|----------------|----------------|

|-----0h2-2-0----|-----0h2-2x0----|----0-0-----0-0-|-0-0h2p0--------|

|-0h2---------0h2|-0h2---------0h2|-0h2----0h2-----|---------2------|

|----------------|----------------|----------------|----------------|

|----------------|----------------|----------------|------------0---|



|----------------|----------------|----------------|----------------|

|----------------|----------------|----------------|---x------------|

|----0-0-----0-0-|-0-0h2p0--------|-0---5-5-----5-5|-5-7-5----------|

|-0h2----0h2-----|---------2------|-5h7-----5h7----|-------2--------|

|----------------|----------------|----------------|----------------|

|----------------|------------0---|----------------|------------0---|



Repeat final 2 measures until fade out

_____________________________________________________________________



Tablature Legend:



h Hammer-on

p Pull-off

b Bend note

r Return from bend

x Dampened note

/ Slide up

\ Slide down

// Gliss up

~ Vibrato

_____________________________________________________________________



Lyrics:

I've been to London, seen seven wonders

I know to trip is just to fall

I used to rock it, sometimes I'd roll it

I always knew what it was for



There can be no denying

That the wind will shake 'em down

And the flat world's flying

There's a new plague on the land



If we could just join hands

If we could just join hands

If we could just join...



Traversed the planet

When heaven sent me

I saw the kings who rule them all

Still by the firelight

And purple moonlight

I hear the rested rivers call

And the wind is crying

From a love that won't grow cold

My lover, she is lying,

On the dark side of the globe



If we could just join hands

If we could just join hands

If we could just join hands



Yeah yeah, yeah yeah, yeah yeah, yeah yeah,

Yeah yeah, yeah yeah, yeah yeah,



You got me rockin' when I ought to be a-rollin'

Darlin', tell me, darlin', which way to go

You keep me rockin', baby, then you keep me stolen

Won't you tell me, darlin', which way to go



That's right



Oh how I wonder

Oh how I worry

And I would dearly like to know

I've all this wonder

Of earthly plunder

Will it leave us anything to show



And our time is flying

See the candle burning low

Is the new world rising,

From the shambles of the old



If we could just join hands

If we could just join hands

If we could just, if we could just,

If we could just, if we could just,

If we could just join hands



Hey, that's all it takes, that's all it takes

That's all it takes, that's all it takes



Yeah yeah, yeah yeah, yeah yeah, yeah yeah,

Yeah yeah, yeah yeah, yeah yeah, yeah yeah,

Yeah yeah, yeah yeah, yeah yeah, yeah yeah,

Yeah yeah, ooh yeah



Aah! Aah!

That's right! That's right!

That's right! That's right!



-------------------

In My Time of Dying

-------------------

*Standard Tuning*



Intro

(A)

4/4

Gtr I

|----------|---------------|---------------------|

|----------|---------------|-------3s12-(12)-----|

|--------3s|=2-0-2s3s5---0-|-3s2-0-3s12-(12)---3s|

|----------|-----2s3s5---0-|-3s2-0-3s12-(12)---3s|

|----------|---------------|---------------------|

|----------|---------------|---------------------|





|---------------|-----------------|

|---------------|-----------------|

|-2-0-2s3s5---0-|-3---0-(0)---3s==|

|-2-0-2s3s5---0-|-3---0-(0)---3s==|

|---------------|-----------------|

|---------------|-----------------|





|---------------|---------------------|---------------|--------------|--------|

|---------------|-------3s12-(12)-----|---------------|--------------|--------|

|-2-0-2s3s5---0-|-3s2-0-3s12-(12)---3s|=2-0-2s3s5---0-|-3s==0-(0)----|-(0)----|

|-2-0-2s3s5---0-|-3s2-0-3s12-(12)---3s|=2-0-2s3s5---0-|-3s==0-(0)----|-(0)----|

|---------------|---------------------|---------------|--------------|--------|

|---------------|---------------------|---------------|--------------|--------|





A5C5 D5 (A) A5C5 D5 (A)

|----------------|---------------------|----------------|---------------------|

|----------------|---------------------|----------------|---------------------|

|-0-3--5-(5)---0-|-3s7-0-3s5-3-(3)--0--|-0-3--5-(5)---0-|-3s7-0-3s5-3-(3)---0-|

|-0-3--5-(5)-----|---------------------|-0-3--5-(5)-----|---------------------|

|-0-3--5-(5)-----|---------------------|-0-3--5-(5)-----|---------------------|

|----------------|---------------------|----------------|---------------------|





A5C5 D5 (A)

|----------------|----------------------|

|----------------|----------------------|

|-0-3--5-(5)---0-|-3s7-0-3s5-3-(3)--0-0s|

|-0-3--5-(5)-----|--------------------0s|

|-0-3--5-(5)-----|----------------------|

|----------------|----------------------|





|-----------------------|--------------------------|

|-----------------------|--------------------------|

|-7-0-3s5-0-2s3-0-0-5s7-|-(7)-0-3s5-0-2s3-0-0-5s7--|

|-7---3s5---2s3-----5s7-|-(7)---3s5---2s3-----5s7--|

|-----------------------|--------------------------|

|-----------------------|--------------------------|





|-------------------------|------------------------|

|-------------------------|------------------------|

|-(7)-0-3s5-0-2s3-0-0-5s7-|-(7)-0-3s5-0-2s3-0-0s12-|

|-(7)---3s5---2s3-----5s7-|-(7)---3s5---2s3---0s12-|

|-------------------------|------------------------|

|-------------------------|------------------------|





|---------------------------|---------------------------|

|----------------------3s12-|-(12)----------------------|

|-(12)-0-3s5-0-2s3-0-0-3s12-|-(12)-0-3s5-0-2s3-0-0-5s7--|

|-(12)---3s5---2s3-----3s12-|-(12)---3s5---2s3----------|

|---------------------------|---------------------------|

|---------------------------|---------------------------|





D5 (A)

|-----------------------|----------------------|------------|--------------|

|-----------------------|----------------------|------------|--------------|

|-(7)-0-3s5-0-2s3-0-0-7s|=12-0-3s5-0-2s3-0-0-5-|-(5)--------|-(5)-------3s=|

|-------3s5---2s3-------|------3s5---2s3-----5-|-(5)--------|-(5)-------3s=|

|-----------------------|--------------------5-|-(5)--------|-(5)----------|

|-----------------------|----------------------|------------|--------------|





Verses 1 & 2

||----------------|---------------------|---------------|-------------|

||o---------------|-------3s12-(12)-----|---------------|-------------|

||--2-0-2s3s5---0-|-3s2-0-3s12-(12)---3s|=2-0-2s3s5---0-|-3s===0---3s=|

||--2-0-2s3s5---0-|-3s2-0-3s12-(12)---3s|=2-0-2s3s5---0-|-3s===0---3s=|

||o---------------|---------------------|---------------|-------------|

||----------------|---------------------|---------------|-------------|





|---------------|---------------------|---------------|-----------|--------|

|---------------|-------3s12-(12)-----|---------------|-----------|--------|

|-2-0-2s3s5---0-|-3s2-0-3s12-(12)---3s|=2-0-2s3s5---0-|-3s===0----|-(0)----|

|-2-0-2s3s5---0-|-3s2-0-3s12-(12)---3s|=2-0-2s3s5---0-|-3s===0----|-(0)----|

|---------------|---------------------|---------------|-----------|--------|

|---------------|---------------------|---------------|-----------|--------|





A5C5 D5 (A) A5C5 D5 (A)

|---------------|-----------------|----------------|-----------------------|

|---------------|-----------------|----------------|-----------------------|

|-0-3--5-(5)----|-(5)---3-(3)s=0--|-0-3--5-(5)---0-|-3s7-0-3s5-3-(3)s===2--|

|-0-3--5-(5)----|-(5)---3-(3)s=0--|-0-3--5-(5)-----|-----------------------|

|-0-3--5-(5)----|-(5)-------------|-0-3--5-(5)-----|-----------------------|

|---------------|-----------------|----------------|-----------------------|





A5C5 D5 (A)

|----------------|----------------------|

|----------------|----------------------|

|-0-3--5-(5)---0-|-3s7-0-3s5-3-(3)--0-0s|

|-0-3--5-(5)-----|--------------------0s|

|-0-3--5-(5)-----|----------------------|

|----------------|----------------------|





|-----------------------|--------------------------|

|-----------------------|--------------------------|

|-7-0-3s5-0-2s3-0-0-5s7-|-(7)-0-3s5-0-2s3-0-0-5s7--|

|-7---3s5---2s3-----5s7-|-(7)---3s5---2s3-----5s7--|

|-----------------------|--------------------------|

|-----------------------|--------------------------|





|-------------------------|------------------------|

|-------------------------|------------------------|

|-(7)-0-3s5-0-2s3-0-0-5s7-|-(7)-0-3s5-0-2s3-0-0s12-|

|-(7)---3s5---2s3-----5s7-|-(7)---3s5---2s3---0s12-|

|-------------------------|------------------------|

|-------------------------|------------------------|





|---------------------------|---------------------------|

|----------------------3s12-|-(12)----------------------|

|-(12)-0-3s5-0-2s3-0-0-3s12-|-(12)-0-3s5-0-2s3-0-0-5s7--|

|-(12)---3s5---2s3-----3s12-|-(12)---3s5---2s3----------|

|---------------------------|---------------------------|

|---------------------------|---------------------------|





D5

|-----------------------|----------------------|------------|--------------||

|-----------------------|----------------------|------------|--------------||

|-(7)-0-3s5-0-2s3-0-0-7s|=12-0-3s5-0-2s3-0-0-5-|-(5)--------|-(5)-------3s=||

|-------3s5---2s3-------|------3s5---2s3-----5-|-(5)--------|-(5)-------3s=||

|-----------------------|--------------------5-|-(5)--------|-(5)----------||

|-----------------------|----------------------|------------|--------------||





1.

|---------------|-----------------12----|---------------|-----------------|

|---------------|-------3s12-(12)-------|---------------|-----------------|

|-2-0-2s3s5---0-|-3s2-0-3s12-(12)-----3s|=2-0-2s3s5---0-|-3s==0-(0)---3s==|

|-2-0-2s3s5---0-|-3s2-0-3s12-(12)-----3s|=2-0-2s3s5---0-|-3s==0-(0)---3s==|

|---------------|-----------------------|---------------|-----------------|

|---------------|-----------------------|---------------|-----------------|





|---------------|---------------------|---------------|--------------||

|---------------|-------3s12-(12)-----|---------------|-------------o||

|-2-0-2s3s5---0-|-3s2-0-3s12-(12)---3s|=2-0-2s3s5---0-|-3-------3\---||

|-2-0-2s3s5---0-|-3s2-0-3s12-(12)---3s|=2-0-2s3s5---0-|-3-------3\---||

|---------------|---------------------|---------------|-------------o||

|---------------|---------------------|---------------|--------------||





2.100

D7 D13D7 D13 D7 D13D7 D13

|-8-8-7--8-8-7--|-8-8-7--8-8-7--|

|-8-8-7--8-8-7--|-8-8-7--8-8-7--|

|-5-5-5--5-5-5--|-5-5-5--5-5-5--|

|-5-5-5--5-5-5--|-5-5-5--5-5-5--|

|-5-5-5--5-5-5--|-5-5-5--5-5-5--|

|---------------|---------------|





(A)

|---------------------------|---------------------------|

|---------------------------|---------------------------|

|--3-2-0-3-2-0-0-5-3-0-(0)--|--3-2-0-3-2-0-0-5-3-0-(0)--|

|--3-2-0-3-2-0-0-5-3-0-(0)--|--3-2-0-3-2-0-0-5-3-0-(0)--|

|---------------------------|---------------------------|

|---------------------------|---------------------------|





9/8

|---------------------------|-----------------------------|

|---------------------------|-----------------------------|

|--3-2-0-3-2-0-0-5-3-0-(0)--|--3-2-0-3-2-0-0-5-3-0-(0)----|

|--3-2-0-3-2-0-0-5-3-0-(0)--|--3-2-0-3-2-0-0-5-3-0-(0)----|

|---------------------------|-----------------------------|

|---------------------------|-----------------------------|





Verse 3

D7 D13D7 D13 D7 D13D7 D13 D7 D13D7 D13 D7 D13D7 D13

4/4

||--8-8-7--8-8-7--|-8-8-7--8-8-7--|-8-8-7--8-8-7--|-8-8-7--8-8-7-------|

||o-8-8-7--8-8-7--|-8-8-7--8-8-7--|-8-8-7--8-8-7--|-8-8-7--8-8-7-0-0-0-|

||--5-5-5--5-5-5--|-5-5-5--5-5-5--|-5-5-5--5-5-5--|-5-5-5--5-5-5-0-0-0-|

||--5-5-5--5-5-5--|-5-5-5--5-5-5--|-5-5-5--5-5-5--|-5-5-5--5-5-5-0-0-0-|

||o-5-5-5--5-5-5--|-5-5-5--5-5-5--|-5-5-5--5-5-5--|-5-5-5--5-5-5-0-0-0-|

||----------------|---------------|---------------|--------------------|





(A)

|---------------------------|---------------------------|

|---------------------------|---------------------------|

|--3-2-0-3-2-0-0-5-3-0-(0)--|--3-2-0-3-2-0-0-5-3-0-(0)--|

|--3-2-0-3-2-0-0-5-3-0-(0)--|--3-2-0-3-2-0-0-5-3-0-(0)--|

|---------------------------|---------------------------|

|---------------------------|---------------------------|





9/8

|---------------------------|------------------------------||

|---------------------------|-----------------------------o||

|--3-2-0-3-2-0-0-5-3-0-(0)--|--3-2-0-3-2-0-0-5-3-0-(0)-----||

|--3-2-0-3-2-0-0-5-3-0-(0)--|--3-2-0-3-2-0-0-5-3-0-(0)-----||

|---------------------------|-----------------------------o||

|---------------------------|------------------------------||





D7 D13D7 D13 D7 D13D7 D13 C7 C13C7 C13 C7 C13C7 C13

4/4

|-8-8-7--8-8-7--|-8-8-7--8-8-7--|-6-6-5--6-6-5--|-6-6-5--6-6-5---|

|-8-8-7--8-8-7--|-8-8-7--8-8-7--|-6-6-5--6-6-5--|-6-6-5--6-6-5---|

|-5-5-5--5-5-5--|-5-5-5--5-5-5--|-3-3-3--3-3-3--|-3-3-3--3-3-3---|

|-5-5-5--5-5-5--|-5-5-5--5-5-5--|-3-3-3--3-3-3--|-3-3-3--3-3-3---|

|-5-5-5--5-5-5--|-5-5-5--5-5-5--|-3-3-3--3-3-3--|-3-3-3--3-3-3---|

|---------------|---------------|---------------|----------------|





(A)

|---------------------------|---------------------------|

|---------------------------|---------------------------|

|--3-2-0-3-2-0-0-5-3-0-(0)--|--3-2-0-3-2-0-0-5-3-0-(0)--|

|--3-2-0-3-2-0-0-5-3-0-(0)--|--3-2-0-3-2-0-0-5-3-0-(0)--|

|---------------------------|---------------------------|

|---------------------------|---------------------------|





|---------------------------|-----------------------------|

|---------------------------|-----------------------------|

|--3-2-0-3-2-0-0-5-3-0-(0)--|--3-2-0-3-2-0-0-5-3-0-(0)----|

|--3-2-0-3-2-0-0-5-3-0-(0)--|--3-2-0-3-2-0-0-5-3-0-(0)----|

|---------------------------|-----------------------------|

|---------------------------|-----------------------------|





First Guitar Solo

|------------------------------------|---------------------------------------|

|------------------------------------|---------------------------------------|

|--3-0-2s3-0-0-0-3s0-----0-(0)-0-0-0-|-0-0-3s0-----0-0-0-3s0-----0-0-7s12s3--|

|--3-0-2s3-------3s0-2s3-0-(0)-------|-----3s0-2s3-------3s0-2s3-0-0-7s12s3--|

|------------------------------------|---------------------------------------|

|------------------------------------|---------------------------------------|





|----------------------------------|--------------------------------------|

|----------------------------------|--------------------------------------|

|--0-3-0-3-0-0-0-3-2s3-0-(0)-12s10-|-(10)-0-3-0---0-0-0-2s3-0-2s3-0-(0)-0-|

|----3-0-3-------------------------|--------3-0-3-----------------0-(0)-0-|

|----------------------------------|--------------------------------------|

|----------------------------------|--------------------------------------|





|---------------------------|---------------------------|

|---------------------------|---------------------------|

|-3s2-0s5-(5)-3s2-0s7-3s2-0-|-3s2-0s5-(5)-3s2-0s7-3s2-0-|

|---------------------------|---------------------------|

|---------------------------|---------------------------|

|---------------------------|---------------------------|





|----------------------------------------|

|---------------------------12-12---12s5-|

|-6-7-0-6-7-0-9-10-0-9-10-0-12-12-0-12s5-|

|----------------------------------------|

|----------------------------------------|

|----------------------------------------|





|---------------------------------------|

|--------------10s12-(12)---------------|

|--0-0-0-3s2-0-10s12-(12)-0-0-0-3s2-0-0-|

|-------------------------------3s2-0-0-|

|---------------------------------------|

|---------------------------------------|





|----------------12------------12-11-------------15-|



|----------11s12----11s12-(12)-------12-15-15-15----|

|-0-7S12-0-11s12----11s12-(12)-------------15-------|

|-0-7S12-0------------------------------------------|

|---------------------------------------------------|

|---------------------------------------------------|





|-------15-------15-------12-------12-------12----|

|----15----15-15----11-12----11-12----11-12----3--|

|-15-------15-------------------------------------|

|-------------------------------------------------|

|-------------------------------------------------|

|-------------------------------------------------|





|---5-----8-----8-----8-----8-----|-5-5-3-3-------------------------|

|-5---4-5-8-7-8-8-7-8---7-8---4-5-|---5-3-3-------------------------|

|---------------------------------|---------3-3-0-3s2-0-3-2-0-0-0-0-|

|---------------------------------|---------------3s2-0-3-2-0-0-0-0-|

|---------------------------------|---------------------------------|

|---------------------------------|---------------------------------|





|---------------------------------------|------------------------------------|

|---------------------------------------|------------------------------------|

|-0-0-2s3-0-0-0-0-0-2s3-0-2s3-0-(0)-0-0-|-0-2s3-0-(0)-0-0-0-3s2-0-5-(5)-5-0--|

|-0-0-2s3-0-0-----------------0-(0)-----|-0-2s3-0-(0)-------3s2-0-5-(5)-5-0--|

|---------------------------------------|------------------------------------|

|---------------------------------------|------------------------------------|





|-----------------------------2-|-3---2-3-------2-3---2-3----------|

|-----------------------------2-|-3---2-3--------------------------|

|-0-2s3-0-0-0-3-0-0-0-(0)-0-0---|---0-----0-0-0-----0-----0-0-0-0--|

|-0-2s3-0-0-0-3-0-0-0-(0)-------|----------------------------------|

|-------------------------------|----------------------------------|

|-------------------------------|----------------------------------|





|------------12----12----12----12----12----12----12-|

|-7s12-12-12----12----12----12----12----12----12-12-|

|-7s12----------12----12----12----12----12----12----|

|---------------------------------------------------|

|---------------------------------------------------|

|---------------------------------------------------|





9/8

|-12-15-15-15----15-15-15----15-15-------15-15s10---|

|-------------15----------15-------15-15----15s10---|

|---------------------------------------------------|

|---------------------------------------------------|

|---------------------------------------------------|

|---------------------------------------------------|





Verse 4

D7 D13D7 D13 D7 D13D7 D13 D7 D13D7 D13 D7 D13D7 D13

4/4

||--8-8-7--8-8-7--|-8-8-7--8-8-7--|-8-8-7--8-8-7--|-8-8-7--8-8-7-------|

||o-8-8-7--8-8-7--|-8-8-7--8-8-7--|-8-8-7--8-8-7--|-8-8-7--8-8-7-0-0-0-|

||--5-5-5--5-5-5--|-5-5-5--5-5-5--|-5-5-5--5-5-5--|-5-5-5--5-5-5-0-0-0-|

||--5-5-5--5-5-5--|-5-5-5--5-5-5--|-5-5-5--5-5-5--|-5-5-5--5-5-5-0-0-0-|

||o-5-5-5--5-5-5--|-5-5-5--5-5-5--|-5-5-5--5-5-5--|-5-5-5--5-5-5-0-0-0-|

||----------------|---------------|---------------|--------------------|





(A)

|---------------------------|---------------------------|

|---------------------------|---------------------------|

|--3-2-0-3-2-0-0-5-3-0-(0)--|--3-2-0-3-2-0-0-5-3-0-(0)--|

|--3-2-0-3-2-0-0-5-3-0-(0)--|--3-2-0-3-2-0-0-5-3-0-(0)--|

|---------------------------|---------------------------|

|---------------------------|---------------------------|





9/8

|---------------------------|------------------------------||

|---------------------------|-----------------------------o||

|--3-2-0-3-2-0-0-5-3-0-(0)--|--3-2-0-3-2-0-0-5-3-0-(0)-----||

|--3-2-0-3-2-0-0-5-3-0-(0)--|--3-2-0-3-2-0-0-5-3-0-(0)-----||

|---------------------------|-----------------------------o||

|---------------------------|------------------------------||





D7 D13D7 D13 D7 D13D7 D13 C7 C13C7 C13 C7 C13C7 C13

4/4

|-8-8-7--8-8-7--|-8-8-7--8-8-7--|-6-6-5--6-6-5--|-6-6-5--6-6-5---|

|-8-8-7--8-8-7--|-8-8-7--8-8-7--|-6-6-5--6-6-5--|-6-6-5--6-6-5---|

|-5-5-5--5-5-5--|-5-5-5--5-5-5--|-3-3-3--3-3-3--|-3-3-3--3-3-3---|

|-5-5-5--5-5-5--|-5-5-5--5-5-5--|-3-3-3--3-3-3--|-3-3-3--3-3-3---|

|-5-5-5--5-5-5--|-5-5-5--5-5-5--|-3-3-3--3-3-3--|-3-3-3--3-3-3---|

|---------------|---------------|---------------|----------------|





(A)

|---------------------------|---------------------------|

|---------------------------|---------------------------|

|--3-2-0-3-2-0-0-5-3-0-(0)--|--3-2-0-3-2-0-0-5-3-0-(0)--|

|--3-2-0-3-2-0-0-5-3-0-(0)--|--3-2-0-3-2-0-0-5-3-0-(0)--|

|---------------------------|---------------------------|

|---------------------------|---------------------------|





|---------------------------|-----------------------------|

|---------------------------|-----------------------------|

|--3-2-0-3-2-0-0-5-3-0-(0)--|--3-2-0-3-2-0-0-5-3-0-(0)----|

|--3-2-0-3-2-0-0-5-3-0-(0)--|--3-2-0-3-2-0-0-5-3-0-(0)----|

|---------------------------|-----------------------------|

|---------------------------|-----------------------------|





Second Guitar Solo

|-------------------------------------------|

|-------------------------------------------|

|-0-0-2s3-0-2s3-0-0-0-2s3-0-----0-(0)-0-0-0-|

|-0-0-2s3-0-2s3-0-0-0-2s3-0-2s3-0-(0)-0-0-0-|

|-------------------------------------------|

|-------------------------------------------|





|---------------------------------------|

|---------------------------------------|

|-0-0-2s3-0-----0-0-0-2s3-0-----0-0-12s=|

|-0-0-2s3-0-2s3-0-0-0-2s3-0-2s3-0-0-12s=|

|---------------------------------------|

|---------------------------------------|





|----------------------------------------|

|----------------------------------------|

|-3-0-2s3-0-2s3-0-0-0-----------0-(0)-12s|

|-3-0-2s3-0-2s3-0-0-0-2s3-0-2s3-0-(0)-12s|

|----------------------------------------|

|----------------------------------------|





|---------------------------------------|

|---------------------------------------|

|-3-0-2s3-0-2s3-0-0-0-----------0-(0)-0-|

|-3-0-2s3-0-2s3-0-0-0-2s3-0-2s3-0-(0)-0-|

|---------------------------------------|

|---------------------------------------|





|-----------5s3-----5s3-----5s3-----|-5s3-----------------------------|

|-----------------------------------|---------------------------------|

|-2-3-2-3s2-------------------------|--------------------3-0-0-0-0-0--|

|-2-3-2-3s2-----5s3-----5s3-----5s3-|-----5s3------0-3-0--------------|

|-----------------------------------|----------0-3--------------------|

|-----------------------------------|---------------------------------|





|---------------------------------|

|---------------------------------|

|-2s3-2-0-3s5-(5)-0-3s5-0-2s3-2-0-|

|-----------------------0-2s3-2-0-|

|---------------------------------|

|---------------------------------|





|----------------12-------15-------12---------|

|-8-8-8-10s12-12----14-15----11-12------------|

|-------------------------------------12s10-0-|

|---------------------------------------------|

|---------------------------------------------|

|---------------------------------------------|





|-----------------------------|-----------------------------------------------|

|-----------------------------|-----------------------------------------------|

|-6-7-0-5-(5)-5-0-3s2-0-------|-6-7-0-3s5-(5)-5-0-3s2-0-7s12-(12)-12-12-12s10-|

|-----------------3s2-0-------|-------------------------7s12-(12)-12-12-------|

|-----------------------3s2-0-|-----------------------------------------------|

|-----------------------------|-----------------------------------------------|





|--------------------------------------------|

|--------------------------------------------|

|--12s10--10s12s7--0-2s3-2-0-3s5-0-0-2s3-2-0-|

|--------------------------------------------|

|--------------------------------------------|

|--------------------------------------------|





|----------------------------------|

|----------------------------------|

|---------0-2s3-0-0-0-6-7-3-2-0-0--|

|----------------------------------|

|-2s3-0-3--------------------------|

|----------------------------------|





|--------------------------------------------------------|

|-----------------------------------------------------11-|

|-0-10s12-10s12-(12)-10s12-12s10-(10)-10-0-10s12-10-0-11-|

|--------------------------------------------------------|

|--------------------------------------------------------|

|--------------------------------------------------------|





|----12-------12-------------------------|

|-12----11-12----11-12-3-3-2-0-0---------|

|-12-----------------------------3-2-0-0-|

|----------------------------------------|

|----------------------------------------|

|----------------------------------------|





|-------12----12----12----12----12----12----12----|

|-10s12-12-12-12-12-12-12-12-12-12-12-12-12-12-12-|

|-10s12----12----12----12----12----12----12----12-|

|-10s12-------------------------------------------|

|-------------------------------------------------|

|-------------------------------------------------|





|----15-15-15-15-15-15-15----------15-15-15-15s10----|

|-12-15-15----15-15-15-15-15-15-15----15-15-15s10-0--|

|-12-15-15----15-15-15-15-15-15-15----15-15-15s10----|

|----------------------------------------------------|

|----------------------------------------------------|

|----------------------------------------------------|





|--------------------------|--------------------------|

|--------------------------|--------------------------|

|--3-2-0-3-2-0-3-2-0-3-0---|--3-2-0-3-2-0-3-2-0-3-0---|

|--3-2-0-3-2-0-3-2-0-3-0---|--3-2-0-3-2-0-3-2-0-3-0---|

|--------------------------|--------------------------|

|--------------------------|--------------------------|





|--------------------------|--------------------------|

|--------------------------|--------------------------|

|--3-2-0-3-2-0-3-2-0-3-0---|--3-2-0-3-2-0-3-2-0-3-0---|

|--3-2-0-3-2-0-3-2-0-3-0---|--3-2-0-3-2-0-3-2-0-3-0---|

|--------------------------|--------------------------|

|--------------------------|--------------------------|





Verse 5

A5C5 D5 (A) A5C5 D5 (A)

|---------------|-----------------|----------------|---------------------|

|---------------|-------------0---|----------------|---------------------|

|-0-3--5-(5)----|-5-5-3-0-(0)-----|-0-3--5-(5)--5--|-5-3--0-(0)-3s12s=3--|

|-0-3--5-(5)----|-5-5-3-0-(0)-----|-0-3--5-(5)--5--|-5-3--0-(0)-3s12s=3--|

|---------------|-----------------|----------------|---------------------|

|---------------|-----------------|----------------|---------------------|





A5C5 D5 (A) A5C5 D5 (A)

|-----------------|--------------------|------------------|--------------------|

|-----------------|--------------------|------------------|--------------------|

|-0-3--5-(5)-5-5--|-5-3--0-(0)-3s12s=3-|-0-3--5-(5)-5-5-5-|-5-3--0-(0)-3s12s=3-|

|-0-3--5-(5)-5-5--|-5-3--0-(0)-3s12s=3-|-0-3--5-(5)-5-5-5-|-5-3--0-(0)-3s12s=3-|

|-----------------|--------------------|------------------|--------------------|

|-----------------|--------------------|------------------|--------------------|





A5C5 D5 (A) A5C5 D5 (A)

|----------------|--------------------|---------------|--------------------|

|----------------|--------------------|---------------|--------------------|

|-0-3--5-(5)--5--|-5-3--0-(0)-3s12s=3-|-0-3--5-(5)----|-5-3--0-(0)-3s12s=3-|

|-0-3--5-(5)--5--|-5-3--0-(0)-3s12s=3-|-0-3--5-(5)----|-5-3--0-(0)-3s12s=3-|

|----------------|--------------------|---------------|--------------------|

|----------------|--------------------|---------------|--------------------|





A5C5 D5 (A) A5C5 D5 (A)

|-----------------|--------------------|----------------|------------------|

|-----------------|--------------------|----------------|------------------|

|-0-3--5-(5)--5-5-|-5-3--0-(0)-3s12s=3-|-0-3--5-(5)---3-|-5-3-5-3-5-3-0-0--|

|-0-3--5-(5)--5-5-|-5-3--0-(0)-3s12s=3-|-0-3--5-(5)---3-|-5-3-5-3-5-3-0-0--|

|-----------------|--------------------|----------------|------------------|

|-----------------|--------------------|----------------|------------------|





|-----------------------|-----------------------|

|-----------------------|-----------------------|

|-3s7-0-3s5-0-3s0-0-3s7-|-(7)-0-3s5-0-3s0-0-3s7-|

|-------------3s0-------|-------------3s0-------|

|-----------------------|-----------------------|

|-----------------------|-----------------------|





|-----------------------|------------------------|

|-----------------------|------------------------|

|-(7)-0-3s5-0-3s0-0-3s7-|-(7)-0-3s5-0-3s0-0-3s12-|

|-------------3s0-------|-------------3s0--------|

|-----------------------|------------------------|

|-----------------------|------------------------|





|-------------------------|-------------------------|

|-------------------------|-------------------------|

|-(12)-0-3s5-0-3s0-0-3s12-|-(12)-0-3s5-0-3s0-0-3s12-|

|--------------3s0--------|--------------3s0--------|

|-------------------------|-------------------------|

|-------------------------|-------------------------|





D5

|-------------------------|------------------------|

|-------------------------|------------------------|

|-(12)-0-3s5-0-3s0-0-3s12-|-(12)-0-3s5-0-3s0-0-5---|

|--------------3s0--------|--------------3s0---5---|

|-------------------------|--------------------5---|

|-------------------------|------------------------|





Outro

|------------|------------|------------|------------|------------|--------|

|------------|------------|------------|------------|------------|--------|

|-(5)--------|-(5)--------|-(5)--------|-(5)--------|-(5)--------|-(5)----|

|-(5)--------|-(5)--------|-(5)--------|-(5)--------|-(5)--------|-(5)----|

|-(5)--------|-(5)--------|-(5)--------|-(5)--------|-(5)--------|-(5)----|

|------------|------------|------------|------------|------------|--------|





(A)

|----------|---------------|---------------------|

|----------|---------------|-------3s12-(12)-----|

|--------3s|=2-0-2s3s5---0-|-3s2-0-3s12-(12)---3s|

|--------3s|=2-0-2s3s5---0-|-3s2-0-3s12-(12)---3s|

|----------|---------------|---------------------|

|----------|---------------|---------------------|





|---------------|------------------|

|---------------|------------------|

|-2-0-2s3s5---0-|-3s==0-(0)---3s===|

|-2-0-2s3s5---0-|-3s==0-(0)---3s===|

|---------------|------------------|

|---------------|------------------|





|---------------|---------------------|---------------|-----------------|

|---------------|-------3s12-(12)-----|---------------|-----------------|

|-2-0-2s3s5---0-|-3s2-0-3s12-(12)---3s|=2-0-2s3s5---0-|-3s==0-(0)---3s==|

|-2-0-2s3s5---0-|-3s2-0-3s12-(12)---3s|=2-0-2s3s5---0-|-3s==0-(0)---3s==|

|---------------|---------------------|---------------|-----------------|

|---------------|---------------------|---------------|-----------------|





|---------------|---------------------|---------------|----------------------|

|---------------|-------3s12-(12)-----|---------------|-------3s12-(12)------|

|-2-0-2s3s5---0-|-3s2-0-3s12-(12)---3s|=2-0-2s3s5---0-|-3s2-0-3s12-(12)---3s=|

|-2-0-2s3s5---0-|-3s2-0-3s12-(12)---3s|=2-0-2s3s5---0-|-3s2-0-3s12-(12)---3s=|

|---------------|---------------------|---------------|----------------------|

|---------------|---------------------|---------------|----------------------|





|---------------|---------------------|---------------|--------------|--------|

|---------------|-------3s12-(12)-----|---------------|--------------|--------|

|-2-0-2s3s5---0-|-3s2-0-3s12-(12)---3s|=2-0-2s3s5---0-|-3s==0-(0)----|-(0)----|

|-2-0-2s3s5---0-|-3s2-0-3s12-(12)---3s|=2-0-2s3s5---0-|-3s==0-(0)----|-(0)----|

|---------------|---------------------|---------------|--------------|--------|

|---------------|---------------------|---------------|--------------|--------|





|-----------------------|-----------------------|

|-----------------------|-----------------------|

|-3s7-0-3s5-0-3s0-0-3s7-|-(7)-0-3s5-0-3s0-0-3s7-|

|-------------3s0-------|-------------3s0-------|

|-----------------------|-----------------------|

|-----------------------|-----------------------|





|------------------------|-------------------------|

|------------------------|-------------------------|

|-(7)-0-3s5-0-3s0-0-3s12-|-(12)-0-3s5-0-3s0-0-3s12-|

|-------------3s0--------|--------------3s0---3s12-|

|------------------------|-------------------------|

|------------------------|-------------------------|





|-------------------------|------------------------|

|-------------------------|------------------------|

|-(12)-0-3s5-0-3s0-0-3s12-|-(12)-0-3s5-0-3s0-0-3s7-|

|-(12)---------3s0---3s12-|-(12)---------3s0-------|

|-------------------------|------------------------|

|-------------------------|------------------------|





|----------------------|------------------------|

|-------------3-0------|-------------3-0--------|

|-(7)-0-3s5-0-3-0--3s7-|-(7)-0-3s5-0-3-0--3s12--|

|----------------------|------------------------|

|----------------------|------------------------|

|----------------------|------------------------|





|------------------------|-----------------------|

|--------------3-0-------|--------------3-0------|

|-(12)-0-3s5-0-3-0--3s12-|-(12)-0-3s5-0-3-0--3s7-|

|------------------------|-----------------------|

|------------------------|-----------------------|

|------------------------|-----------------------|





|-----------------------|-------------------------|

|-----------------------|-------------------------|

|-(7)-0-3s5-0-3-0--3s12-|-(12)-0-3s5-0-3-0--3s12--|

|-------------3-0-------|--------------3-0--------|

|-----------------------|-------------------------|

|-----------------------|-------------------------|





|------------------------|-----------------------|

|------------------------|-----------------------|

|-(12)-0-3s5-0-3-0--3s12-|-(12)-0-3s5-0-3-0--3s7-|

|------0-------3-0-------|------0-------3-0------|

|------------------------|-----------------------|

|------------------------|-----------------------|





|------------------------------|--------------------------------|

|------------------------------|--------------------------------|

|-(7)-0-3s5-0---0-3-0---0-3s12-|-(12)-0-3s5-0---0-3-0---0-3s12--|

|-------------3-------3--------|--------------3-------3---------|

|------------------------------|--------------------------------|

|------------------------------|--------------------------------|





|-------------------------------|-------------------------------|

|-------------------------------|-------------------------------|

|-(12)-0-3s5-0---0-3-0---0-3s12-|-(12)-0-3s5-0---0-3-0---0-3s12-|

|--------------3-------3--------|--------------3-------3--------|

|-------------------------------|-------------------------------|

|-------------------------------|-------------------------------|





|-------------------------------|----------------------------------|

|-------------------------------|----------------------------------|

|-(12)-0-3s5-0---0-3-0---0-3s12-|-(12)-0-3s5-0---0-3-0---0-3s12----|

|--------------3-------3--------|--------------3-------3-----------|

|-------------------------------|----------------------------------|

|-------------------------------|----------------------------------|





|-------------------------------|-------------------------------|

|-------------------------------|-------------------------------|

|-(12)-0-3s5-0---0-3-0---0-3s12-|-(12)-0-3s5-0---0-3-0---0-3s12-|

|--------------3-------3--------|--------------3-------3--------|

|-------------------------------|-------------------------------|

|-------------------------------|-------------------------------|





|------------------------------|--------------------------------|

|------------------------------|--------------------------------|

|-(12)-0-3s5-0---0-3-0---0-3s7-|-(7)-0-3s5-0---0-3-0---0-3s7----|

|--------------3-------3-------|-------------3-------3----------|

|------------------------------|--------------------------------|

|------------------------------|--------------------------------|





|-------------------------------|---------------------------------------|

|-------------------------------|-12-10s12-12-10-12---------------------|

|-(7
Get this song at amazon.com      Ebay     Ringtones Ringtones  


Learn to play: Songwriting, Piano, Harmonica, Guitar
More Led Zeppelin lyrics available at Muzikum

Related Led Zeppelin Tabs

Stairway To Heaven 100% Correct tabs
Stairway To Heaven Solo tabs
Were Gonna Groove Bass tabs
Communication Breakdown Intro tabs
Dazed And Confused Live tabs
Nobodys Fault But Mine tabs
Lets Have A Party tabs
Stairway To Heaven ( From Book ) tabs
Rock & Roll tabs
Bron Yr Aur Stomp tabs
Remasters Disc 2 tabs
Traveling Riverside Blues tabs
Baby Come On Home Bass tabs
Baby Come On Home(5 Stars) tabs
Poor Tom Bass tabs
Black Dog Live tabs
Black Dog (10000% Correct) tabs
Celebration Day Remasters tabs
Royal Orleans Bass tabs
Walters Walk tabs


Guitar Tabs









All tabs are property and copyright of their owners. All tabs provided for educational purposes only. Privacy Policy, DMCA