Led Zeppelin

Physical Graffiti Disc 1 Tabs



More from Led Zeppelin

Led Zeppelin Tabs
Led Zeppelin Chords
Led Zeppelin Bass
Led Zeppelin Lyrics



ok here ive tabbed the more well known disc of zep's 6th album





CUSTARD PIE

As recorded by Led Zeppelin

(From the 1975 Album PHYSICAL GRAFFITI)



Words and Music by Jimmy Page and Robert Plant

Transcribed by rocktabber



Gtr I (E A D G B E) - 'Guitar 1'

Gtr II (E A D G B E) - 'Guitar 2'

Gtr III (E A D G B E) - 'Guitar 3'

Gtr IV (E A D G B E) - 'Harmonica arranged for guitar'



Intro

Q=92

(A7) A5G5A5 (A7) A5G5A5

4/4

Gtr II

W W

|-------------------------|-------------------------|

|-------------------------|-------------------------|

|-------------------------|-------------------------|

|-------------------------|-------------------------|

|-------------------------|-------------------------|

|-------------------------|-------------------------|

|

| Gtr III

| S S S S S S E E E S E S S S S S S S E E E S E S

|-------------------------|-------------------------|

|-------------------------|-------------------------|

|-----------------2-0-2---|-----------------2-0-2---|

|-2-2-2-4-4-4-5---2-0-2---|-2-2-2-4-4-4-5---2-0-2---|

|-0-0-0-0-0-0-0---0---0---|-0-0-0-0-0-0-0---0---0---|

|-------------------3-----|-------------------3-----|





(A7) A5G5A5

E. S +E E E E S E S

|-----------------------------|

|-8------8-(8)---8------------|

|-6------6-(6)---6------------|

|-7------7-(7)---7---7-5-7----|

|--------------------7-5-7----|

|-----------------------------|

|

| S S S S S S E E E S E S

|-----------------------------|

|-----------------------------|

|--------------------2-0-2----|

|-2--2-2-4--4--4-5---2-0-2----|

|-0--0-0-0--0--0-0---0---0----|

|----------------------3------|





(A7) A5G5A5

E. S +E E E E S E S

|----------------------------|

|-8------8-(8)---8-----------|

|-6------6-(6)---6-----------|

|-7------7-(7)---7---7-5-7---|

|--------------------7-5-7---|

|----------------------------|

|

| S S S S S S E E E S E S

|----------------------------|

|----------------------------|

|--------------------2-0-2---|

|-2--2-2-4--4--4-5---2-0-2---|

|-0--0-0-0--0--0-0---0---0---|

|----------------------3-----|





1st & 2nd Verses

(A7) A5G5A5 (A7) A5G5A5

E. S +E E E E S E S E. S +E E E E S E S

||-----------------------------|----------------------------|

||o-8------8-(8)---8-----------|-8------8-(8)---8-----------|

||--6------6-(6)---6-----------|-6------6-(6)---6-----------|

||--7------7-(7)---7---7-5-7---|-7------7-(7)---7---7-5-7---|

||o--------------------7-5-7---|--------------------7-5-7---|

||-----------------------------|----------------------------|

|

| S S S S S S E E E S E S S S S S S S E E E S E S

||-----------------------------|----------------------------|

||o----------------------------|----------------------------|

||---------------------2-0-2---|--------------------2-0-2---|

||--2--2-2-4--4--4-5---2-0-2---|-2--2-2-4--4--4-5---2-0-2---|

||o-0--0-0-0--0--0-0---0---0---|-0--0-0-0--0--0-0---0---0---|

||-----------------------3-----|----------------------3-----|





(A7) A5G5A5 (A7) A5G5A5 D5

E. S +E E E E S E S E. S +E E E E S E S W

|----------------------------|----------------------------|------|

|-8------8-(8)---8-----------|-8------8-(8)---8-----------|------|

|-6------6-(6)---6-----------|-6------6-(6)---6-----------|-7----|

|-7------7-(7)---7---7-5-7---|-7------7-(7)---7---7-5-7---|-7----|

|--------------------7-5-7---|--------------------7-5-7---|-5----|

|----------------------------|----------------------------|------|

|

| S S S S S S E E E S E S S S S S S S E E E S E S W

|----------------------------|----------------------------|------|

|----------------------------|----------------------------|------|

|--------------------2-0-2---|--------------------2-0-2---|-7----|

|-2--2-2-4--4--4-5---2-0-2---|-2--2-2-4--4--4-5---2-0-2---|-7----|

|-0--0-0-0--0--0-0---0---0---|-0--0-0-0--0--0-0---0---0---|-5----|

|----------------------3-----|----------------------3-----|------|





D5C#C5 B5Bb5

S S S S +Q +S S S S +Q

|-----------------------------|

|-----------------------------|

|---7-6-5-(5)--(5)-5-4-3-(3)--|

|---7-6-5-(5)--(5)-5-4-3-(3)--|

|---5-4-3-(3)--(3)-3-2-1-(1)--|

|-----------------------------|

|

| S S S S +Q +S S S S +Q

|-----------------------------|

|-----------------------------|

|---7-6-5-(5)--(5)-5-4-3-(3)--|

|---7-6-5-(5)--(5)-5-4-3-(3)--|

|---5-4-3-(3)--(3)-3-2-1-(1)--|

|-----------------------------|





(A7) A5G5A5 (A7) A5G5A5

E. S +E E E E S E S E. S +E E E E S E S

|----------------------------|----------------------------|

|-8------8-(8)---8-----------|-8------8-(8)---8-----------|

|-6------6-(6)---6-----------|-6------6-(6)---6-----------|

|-7------7-(7)---7---7-5-7---|-7------7-(7)---7---7-5-7---|

|--------------------7-5-7---|--------------------7-5-7---|

|----------------------------|----------------------------|

|

| S S S S S S E E E S E S S S S S S S E E E S E S

|----------------------------|----------------------------|

|----------------------------|----------------------------|

|--------------------2-0-2---|--------------------2-0-2---|

|-2--2-2-4--4--4-5---2-0-2---|-2--2-2-4--4--4-5---2-0-2---|

|-0--0-0-0--0--0-0---0---0---|-0--0-0-0--0--0-0---0---0---|

|----------------------3-----|----------------------3-----|





E5 G7sus4/D F5 G5 (A7) A5G5A5

H. +E E +H E E E E E. S +E E E E S E S

|----------------|-----------------|----------------------------|

|----------------|-----------------|-8------8-(8)---8-----------|

|--------------7-|--(7)------5---7-|-6------6-(6)---6-----------|

|-9-------(9)--5-|--(5)------3---5-|-7------7-(7)---7---7-5-7---|

|-7-------(7)----|-----------------|--------------------7-5-7---|

|----------------|-----------------|----------------------------|

|

| H. +E E +H E E E E S S S S S S E E E S E S

|----------------|-----------------|----------------------------|

|----------------|-----------------|----------------------------|

|-------------10-|-(10)------------|--------------------2-0-2---|

|-9-------(9)-10-|-(10)------3---5-|-2--2-2-4--4--4-5---2-0-2---|

|-7-------(7)-10-|-(10)------3---5-|-0--0-0-0--0--0-0---0---0---|

|-------------10-|-(10)------1---3-|----------------------3-----|





1.

(A7) A5G5A5

E. S +E E E E S E S

|-----------------------------||

|-8------8-(8)---8-----------o||

|-6------6-(6)---6------------||

|-7------7-(7)---7---7-5-7----||

|--------------------7-5-7---o||

|-----------------------------||

|

| S S S S S S E E E S E S

|-----------------------------||

|----------------------------o||

|--------------------2-0-2----||

|-2--2-2-4--4--4-5---2-0-2----||

|-0--0-0-0--0--0-0---0---0---o||

|----------------------3------||





3rd Verse

2.

(A7) A5G5A5 (A7) A5G5A5

E. S +E E E E S E S E. S +E E E E S E S

|----------------------------||----------------------------|

|-8------8-(8)---8-----------||-8------8-(8)---8-----------|

|-6------6-(6)---6-----------||-6------6-(6)---6-----------|

|-7------7-(7)---7---7-5-7---||-7------7-(7)---7---7-5-7---|

|--------------------7-5-7---||--------------------7-5-7---|

|----------------------------||----------------------------|

|

| S S S S S S E E E S E S S S S S S S E E E S E S

|----------------------------||----------------------------|

|----------------------------||----------------------------|

|--------------------2-0-2---||--------------------2-0-2---|

|-2--2-2-4--4--4-5---2-0-2---||-2--2-2-4--4--4-5---2-0-2---|

|-0--0-0-0--0--0-0---0---0---||-0--0-0-0--0--0-0---0---0---|

|----------------------3-----||----------------------3-----|





(A7) A5G5A5

E. S +E E E E S E S

|----------------------------|

|-8------8-(8)---8-----------|

|-6------6-(6)---6-----------|

|-7------7-(7)---7---7-5-7---|

|--------------------7-5-7---|

|----------------------------|

|

| S S S S S S E E E S E S

|----------------------------|

|----------------------------|

|--------------------2-0-2---|

|-2--2-2-4--4--4-5---2-0-2---|

|-0--0-0-0--0--0-0---0---0---|

|----------------------3-----|





(A7) A5G5A5 (A7) A5G5A5

E. S +E E E E S E S E. S +E E E E S E S

|----------------------------|----------------------------|

|-8------8-(8)---8-----------|-8------8-(8)---8-----------|

|-6------6-(6)---6-----------|-6------6-(6)---6-----------|

|-7------7-(7)---7---7-5-7---|-7------7-(7)---7---7-5-7---|

|--------------------7-5-7---|--------------------7-5-7---|

|----------------------------|----------------------------|

|

| S S S S S S E E E S E S S S S S S S E E E S E S

|----------------------------|----------------------------|

|----------------------------|----------------------------|

|--------------------2-0-2---|--------------------2-0-2---|

|-2--2-2-4--4--4-5---2-0-2---|-2--2-2-4--4--4-5---2-0-2---|

|-0--0-0-0--0--0-0---0---0---|-0--0-0-0--0--0-0---0---0---|

|----------------------3-----|----------------------3-----|





D5 D5C#C5 B5Bb5 (A7) A5G5A5

W S S S S +Q +S S S S +Q E. S +E E E E S E S

|----------|-----------------------------|----------------------------|

|----------|-----------------------------|-8------8-(8)---8-----------|

|-7--------|---7-6-5-(5)--(5)-5-4-3-(3)--|-6------6-(6)---6-----------|

|-7--------|---7-6-5-(5)--(5)-5-4-3-(3)--|-7------7-(7)---7---7-5-7---|

|-5--------|---5-4-3-(3)--(3)-3-2-1-(1)--|--------------------7-5-7---|

|----------|-----------------------------|----------------------------|

|

| W S S S S +Q +S S S S +Q S S S S S S E E E S E S

|----------|-----------------------------|----------------------------|

|----------|-----------------------------|----------------------------|

|-7--------|---7-6-5-(5)--(5)-5-4-3-(3)--|--------------------2-0-2---|

|-7--------|---7-6-5-(5)--(5)-5-4-3-(3)--|-2--2-2-4--4--4-5---2-0-2---|

|-5--------|---5-4-3-(3)--(3)-3-2-1-(1)--|-0--0-0-0--0--0-0---0---0---|

|----------|-----------------------------|----------------------3-----|





(A7) A5G5A5 E5 G7sus4/D F5 G5

E. S +E E E E S E S H. +E E +H E E E E

|----------------------------|----------------|-----------------|

|-8------8-(8)---8-----------|----------------|-----------------|

|-6------6-(6)---6-----------|--------------7-|--(7)------5---7-|

|-7------7-(7)---7---7-5-7---|-9-------(9)--5-|--(5)------3---5-|

|--------------------7-5-7---|-7-------(7)----|-----------------|

|----------------------------|----------------|-----------------|

|

| S S S S S S E E E S E S H. +E E +H E E E E

|----------------------------|----------------|-----------------|

|----------------------------|----------------|-----------------|

|--------------------2-0-2---|-------------10-|-(10)------------|

|-2--2-2-4--4--4-5---2-0-2---|-9-------(9)-10-|-(10)------3---5-|

|-0--0-0-0--0--0-0---0---0---|-7-------(7)-10-|-(10)------3---5-|

|----------------------3-----|-------------10-|-(10)------1---3-|





Guitar Solo

(A7) A5G5A5 (A7) A5G5A5

Gtr I

E. S +E E +H E. S +E E +H

|-------------------------------------|-------------------------------------|

|-7b8-----7b8==(7)---7b8==(7)---------|-7b8-----7b8==(7)---7b8==(7)---------|

|-7b9-----7b9==(7)---7b9==(7)---------|-7b9-----7b9==(7)---7b9==(7)---------|

|-------------------------------------|-------------------------------------|

|-------------------------------------|-------------------------------------|

|-------------------------------------|-------------------------------------|

|

| Gtr II

| E. S +E E E E S E S E. S +E E E E S E S

|-------------------------------------|-------------------------------------|

|-8-------8----(8)---8----------------|-8-------8----(8)---8----------------|

|-6-------6----(6)---6----------------|-6-------6----(6)---6----------------|

|-7-------7----(7)---7--------7-5-7---|-7-------7----(7)---7--------7-5-7---|

|-----------------------------7-5-7---|-----------------------------7-5-7---|

|-------------------------------------|-------------------------------------|

|

| Gtr III

| S S S S S S E E E S E S S S S S S S E E E S E S

|-------------------------------------|-------------------------------------|

|-------------------------------------|-------------------------------------|

|-----------------------------2-0-2---|-----------------------------2-0-2---|

|-2---2-2-4-----4--4-5--------2-0-2---|-2---2-2-4-----4--4-5--------2-0-2---|

|-0---0-0-0-----0--0-0--------0---0---|-0---0-0-0-----0--0-0--------0---0---|

|-------------------------------3-----|-------------------------------3-----|





(A7) A5 G5A5

E. S +E E +E T +T S S S S S

|-----------------------------------------------|

|-7b8-----7b8==(7)---7b8==(7)-7b8r(7)p5-7p5-----|

|-7b9-----7b9==(7)---7b9==(7)-7b9r(7)p5-7p5---5-|

|-------------------------------------------7---|

|-----------------------------------------------|

|-----------------------------------------------|

|

| E. S +E E E E S E S

|-----------------------------------------------|

|-8-------8----(8)---8--------------------------|

|-6-------6----(6)---6--------------------------|

|-7-------7----(7)---7--------7---------5-7-----|

|-----------------------------7---------5-7-----|

|-----------------------------------------------|

|

| S S S S S S E E E S E S

|-----------------------------------------------|

|-----------------------------------------------|

|-----------------------------2---------0-2-----|

|-2---2-2-4-----4--4-5--------2---------0-2-----|

|-0---0-0-0-----0--0-0--------0-----------0-----|

|---------------------------------------3-------|





(A7) A5 G5A5

E. S +E S +S +S +S T T S S S S S

|-------------------------------------------------------|

|-7b8-----7b8==(7)---7b8==(7)r(7)b8-(7)-7b8r7p5-7p5-----|

|-7b9-----7b9==(7)---7b9==(7)r(7)b9-(7)-7b9r7p5-7p5---5-|

|---------------------------------------------------7---|

|-------------------------------------------------------|

|-------------------------------------------------------|

|

| E. S +E E E E S E S

|-------------------------------------------------------|

|-8-------8----(8)---8----------------------------------|

|-6-------6----(6)---6----------------------------------|

|-7-------7----(7)---7------------------7-------5-7-----|

|---------------------------------------7-------5-7-----|

|-------------------------------------------------------|

|

| S S S S S S E E E S E S

|-------------------------------------------------------|

|-------------------------------------------------------|

|---------------------------------------2-------0-2-----|

|-2---2-2-4-----4--4-5------------------2-------0-2-----|

|-0---0-0-0-----0--0-0------------------0---------0-----|

|-----------------------------------------------3-------|





(A7) A5 G5A5

E. S +E S +S +S +S T T S S S S S

|--------------------------------------------------------|

|-7b8-----7b8==(7)---7b8==(7)r(7)b8-(7)-7b8r7p5-7p5------|

|-7b9-----7b9==(7)---7b9==(7)r(7)b9-(7)-7b9r7p5-7p5---5--|

|---------------------------------------------------7----|

|--------------------------------------------------------|

|--------------------------------------------------------|

|

| E. S +E E E E S E S

|--------------------------------------------------------|

|-8-------8----(8)---8-----------------------------------|

|-6-------6----(6)---6-----------------------------------|

|-7-------7----(7)---7------------------7-------5-7------|

|---------------------------------------7-------5-7------|

|--------------------------------------------------------|

|

| S S S S S S E E E S E S

|--------------------------------------------------------|

|--------------------------------------------------------|

|---------------------------------------2-------0-2------|

|-2---2-2-4-----4--4-5------------------2-------0-2------|

|-0---0-0-0-----0--0-0------------------0---------0------|

|-----------------------------------------------3--------|





(A7) A5 G5 A5

|--3---|

S +S S S +S S S S S S S S S E S S

|---------5----------------------------------------|

|--------------------------------------------------|

|-7b9-(7)---7b9==(7)r7p==5-7---5-7-5---5b6-----5b6-|

|----------------------------7-------7-------7-----|

|--------------------------------------------------|

|--------------------------------------------------|

|

| E. S +E E E E S E S

|--------------------------------------------------|

|-8---------8----(8)-------8-----------------------|

|-6---------6----(6)-------6-----------------------|

|-7---------7----(7)-------7-------7---5---7-------|

|----------------------------------7---5---7-------|

|--------------------------------------------------|

|

| S S S S S S E E E S E S

|--------------------------------------------------|

|--------------------------------------------------|

|----------------------------------2---0---2-------|

|-2----2--2-4-----4----4---5-------2---0---2-------|

|-0----0--0-0-----0----0---0-------0-------0-------|

|--------------------------------------3-----------|





D5

a S S S S a S S S S a S S a S S S S S S

|--------------------------------------------------|

|--------------------------------------------------|

|-9s11-11-11-11-11s9p7---7-7s5---------------------|

|----------------------9-------7-5s3---3b4---3-----|

|------------------------------------5-----5-------|

|--------------------------------------------------|

|

| W

|--------------------------------------------------|

|--------------------------------------------------|

|----7---------------------------------------------|

|----7---------------------------------------------|

|----5---------------------------------------------|

|--------------------------------------------------|

|

| W

|--------------------------------------------------|

|--------------------------------------------------|

|----7---------------------------------------------|

|----7---------------------------------------------|

|----5---------------------------------------------|

|--------------------------------------------------|





D5C#C5 B5Bb5 (A7) A5 G5 A5

15/16 4/4

S S S S +Q S S S +Q S S S S S S S S S S S S S +S S S

|-------------------------|----------------------------------------|

|-------------------------|----------------------------------------|

|-------------------------|-----------5--x-7---5-7-5---5b6-(5)-----|

|---5-4-3-(3)--5-4-3-(3)--|----5-6-7---------7-----------------7---|

|-------------------------|-7------------------------------------x-|

|-------------------------|----------------------------------------|

|

| S S S S +Q S S S +Q E. S +E E E E S E S

|-------------------------|----------------------------------------|

|-------------------------|-8------8-(8)---8-----------------------|

|---7-6-5-(5)--5-4-3-(3)--|-6------6-(6)---6-----------------------|

|---7-6-5-(5)--5-4-3-(3)--|-7------7-(7)---7-------7---5----7------|

|---5-4-3-(3)--3-2-1-(1)--|------------------------7---5----7------|

|-------------------------|----------------------------------------|

|

| S S S S +Q S S S +Q S S S S S S E E E S E S

|-------------------------|----------------------------------------|

|-------------------------|----------------------------------------|

|---7-6-5-(5)--5-4-3-(3)--|------------------------2---0----2------|

|---7-6-5-(5)--5-4-3-(3)--|-2--2-2-4--4--4-5-------2---0----2------|

|---5-4-3-(3)--3-2-1-(1)--|-0--0-0-0--0--0-0-------0--------0------|

|-------------------------|----------------------------3-----------|





(A7) A5 G5 A5

4/4

|---3----|

a S S a S S +E S S E E S +T +T T S S

|-------------------------------------------------------------------|

|------x-10s12-10-(10)------10-12b14-12b14-12b14==(12)r(12)p10-12---|

|-9sx--------------------11---------------------------------------x-|

|-------------------------------------------------------------------|

|-------------------------------------------------------------------|

|-------------------------------------------------------------------|

|

| E. S +E E E E S E S

|-------------------------------------------------------------------|

|---8-----------8--(8)----8-----------------------------------------|

|---6-----------6--(6)----6-----------------------------------------|

|---7-----------7--(7)----7-----------7-----5-------7---------------|

|-------------------------------------7-----5-------7---------------|

|-------------------------------------------------------------------|

|

| S S S S S S E E E S E S

|-------------------------------------------------------------------|

|-------------------------------------------------------------------|

|-------------------------------------2-----0-------2---------------|

|---2--2-----2--4---4--4--5-----------2-----0-------2---------------|

|---0--0-----0--0---0--0--0-----------0-------------0---------------|

|-------------------------------------------3-----------------------|





E5 G7sus4/D

E S S +S S E E S S S S S S

|----------------------------------------------------|

|-12b13---12b13-(12)---12b13-12b13-12-10-----10------|

|----------------------------------------11-----11s9-|

|----------------------------------------------------|

|----------------------------------------------------|

|----------------------------------------------------|

|

| H. +E E

|----------------------------------------------------|

|----------------------------------------------------|

|------------------------------------------------7---|

|--9-------------------------------------(9)-----5---|

|--7-------------------------------------(7)---------|

|----------------------------------------------------|

|

| H. +E E

|----------------------------------------------------|

|----------------------------------------------------|

|-----------------------------------------------10---|

|--9-------------------------------------(9)----10---|

|--7-------------------------------------(7)----10---|

|-----------------------------------------------10---|





F5 G5

S S S S +S S S S S S E S S E

|-----------------------------------------------------|

|-----------------------------------13-15b17-13-15-13-|

|---------10-12b14-(12)-12-10-12S14-------------------|

|-----------------------------------------------------|

|---8S=12---------------------------------------------|

|-----------------------------------------------------|

|

| +H E E E E

|-----------------------------------------------------|

|-----------------------------------------------------|

|--(7)----------------------------------5-----------7-|

|--(5)----------------------------------3-----------5-|

|-----------------------------------------------------|

|-----------------------------------------------------|

|

| +H E E E E

|-----------------------------------------------------|

|-----------------------------------------------------|

|-(10)------------------------------------------------|

|-(10)----------------------------------3-----------5-|

|-(10)----------------------------------3-----------5-|

|-(10)----------------------------------1-----------3-|





(A7) A5 G5 A5

E S +S S S E S E +S E E

|-15-------------------------15-----------------------|

|-------15b17r(15)-13--15-13----15b17r==(15)-13-------|

|-----------------------------------------------------|

|-----------------------------------------------------|

|-----------------------------------------------------|

|-----------------------------------------------------|

|

| E. S +E E E E S E S

|-----------------------------------------------------|

|--8------------8--(8)-----8--------------------------|

|--6------------6--(6)-----6--------------------------|

|--7------------7--(7)-----7----------7-------5-7-----|

|-------------------------------------7-------5-7-----|

|-----------------------------------------------------|

|

| S S S S S S E E E S E S

|-----------------------------------------------------|

|-----------------------------------------------------|

|-------------------------------------2-------0-2-----|

|--2--2--2------4---4---4--5----------2-------0-2-----|

|--0--0--0------0---0---0--0----------0---------0-----|

|---------------------------------------------3-------|





(A7) A5 G5 A5

E S +S S S E E S +S S S E

|-15-------------------------15-----------------------||

|-------15b17r(15)-13--15-13----15b17r(15)-13-15-13---||

|-----------------------------------------------------||

|-----------------------------------------------------||

|-----------------------------------------------------||

|-----------------------------------------------------||

|

| E. S +E E E E S E S

|-----------------------------------------------------||

|--8------------8--(8)-----8--------------------------||

|--6------------6--(6)-----6--------------------------||

|--7------------7--(7)-----7-----7----------5--7------||

|--------------------------------7----------5--7------||

|-----------------------------------------------------||

|

| S S S S S S E E E S E S

|-----------------------------------------------------||

|-----------------------------------------------------||

|--------------------------------2----------0--2------||

|--2--2--2------4---4---4--5-----2----------0--2------||

|--0--0--0------0---0---0--0-----0-------------0------||

|-------------------------------------------3---------||





4th Verse

(A7) A5G5A5 (A7) A5G5A5

Q Q H W

|-----------------------------|-----------------------------|

|-----------------------------|-----------------------------|

|-14\-------------------------|-----------------------------|

|-----------------------------|-----------------------------|

|-----------------------------|-----------------------------|

|-----------------------------|-----------------------------|

|

| E. S +E E E E S E S E. S +E E E E S E S

|-----------------------------|-----------------------------|

|--8------8-(8)---8-----------|-8------8-(8)---8------------|

|--6------6-(6)---6-----------|-6------6-(6)---6------------|

|--7------7-(7)---7---7-5-7---|-7------7-(7)---7---7-5-7----|

|---------------------7-5-7---|--------------------7-5-7----|

|-----------------------------|-----------------------------|

|

| S S S S S S E E E S E S S S S S S S E E E S E S

|-----------------------------|-----------------------------|

|-----------------------------|-----------------------------|

|---------------------2-0-2---|--------------------2-0-2----|

|--2--2-2-4--4--4-5---2-0-2---|-2--2-2-4--4--4-5---2-0-2----|

|--0--0-0-0--0--0-0---0---0---|-0--0-0-0--0--0-0---0---0----|

|-----------------------3-----|----------------------3------|





(A7) A5G5A5 (A7) A5G5A5 D5

Gtr II

E. S +E E E E S E S E. S +E E E E S E S W

|----------------------------|----------------------------|------|

|-8------8-(8)---8-----------|-8------8-(8)---8-----------|------|

|-6------6-(6)---6-----------|-6------6-(6)---6-----------|-7----|

|-7------7-(7)---7---7-5-7---|-7------7-(7)---7---7-5-7---|-7----|

|--------------------7-5-7---|--------------------7-5-7---|-5----|

|----------------------------|----------------------------|------|

|

| Gtr III

| S S S S S S E E E S E S S S S S S S E E E S E S W

|----------------------------|----------------------------|------|

|----------------------------|----------------------------|------|

|--------------------2-0-2---|--------------------2-0-2---|-7----|

|-2--2-2-4--4--4-5---2-0-2---|-2--2-2-4--4--4-5---2-0-2---|-7----|

|-0--0-0-0--0--0-0---0---0---|-0--0-0-0--0--0-0---0---0---|-5----|

|----------------------3-----|----------------------3-----|------|





D5C#C5 B5Bb5

S S S S +Q +S S S S +Q

|-----------------------------|

|-----------------------------|

|---7-6-5-(5)--(5)-5-4-3-(3)--|

|---7-6-5-(5)--(5)-5-4-3-(3)--|

|---5-4-3-(3)--(3)-3-2-1-(1)--|

|-----------------------------|

|

| S S S S +Q +S S S S +Q

|-----------------------------|

|-----------------------------|

|---7-6-5-(5)--(5)-5-4-3-(3)--|

|---7-6-5-(5)--(5)-5-4-3-(3)--|

|---5-4-3-(3)--(3)-3-2-1-(1)--|

|-----------------------------|





(A7) A5G5A5 (A7) A5G5A5

E. S +E E E E S E S E. S +E E E E S E S

|----------------------------|----------------------------|

|-8------8-(8)---8-----------|-8------8-(8)---8-----------|

|-6------6-(6)---6-----------|-6------6-(6)---6-----------|

|-7------7-(7)---7---7-5-7---|-7------7-(7)---7---7-5-7---|

|--------------------7-5-7---|--------------------7-5-7---|

|----------------------------|----------------------------|

|

| S S S S S S E E E S E S S S S S S S E E E S E S

|----------------------------|----------------------------|

|----------------------------|----------------------------|

|--------------------2-0-2---|--------------------2-0-2---|

|-2--2-2-4--4--4-5---2-0-2---|-2--2-2-4--4--4-5---2-0-2---|

|-0--0-0-0--0--0-0---0---0---|-0--0-0-0--0--0-0---0---0---|

|----------------------3-----|----------------------3-----|





E5 G7sus4/D F5 G5 (A7) A5G5A5

H. +E E +H E E E E E. S +E E E E S E S

|----------------|-----------------|----------------------------||

|----------------|-----------------|-8------8-(8)---8-----------||

|--------------7-|--(7)------5---7-|-6------6-(6)---6-----------||

|-9-------(9)--5-|--(5)------3---5-|-7------7-(7)---7---7-5-7---||

|-7-------(7)----|-----------------|--------------------7-5-7---||

|----------------|-----------------|----------------------------||

|

| H. +E E +H E E E E S S S S S S E E E S E S

|----------------|-----------------|----------------------------||

|----------------|-----------------|----------------------------||

|-------------10-|-(10)------------|--------------------2-0-2---||

|-9-------(9)-10-|-(10)------3---5-|-2--2-2-4--4--4-5---2-0-2---||

|-7-------(7)-10-|-(10)------3---5-|-0--0-0-0--0--0-0---0---0---||

|-------------10-|-(10)------1---3-|----------------------3-----||





Harmonica Solo

(A7) A5G5A5 (A7) A5G5A5

Gtr IV

~~~~~~~~~~~~~~~~~~~~~~~~~~~~~

a W E Q. +Q. +S S

|--------------------------------|----------------------------------------|

|--------------------------------|-17----15------------(15)-------(15)-17-|

|-14s21--------------------------|----------------------------------------|

|--------------------------------|----------------------------------------|

|--------------------------------|----------------------------------------|

|--------------------------------|----------------------------------------|

|

| Gtr II

| E. S +E E E E S E S E. S +E E E E S E S

|--------------------------------|----------------------------------------|

|-----8------8-(8)---8-----------|--8--------8-(8)---8--------------------|

|-----6------6-(6)---6-----------|--6--------6-(6)---6--------------------|

|-----7------7-(7)---7---7-5-7---|--7--------7-(7)---7------7-5-7---------|

|------------------------7-5-7---|--------------------------7-5-7---------|

|--------------------------------|----------------------------------------|

|

| Gtr III

| S S S S S S E E E S E S S S S S S S E E E S E S

|--------------------------------|----------------------------------------|

|--------------------------------|----------------------------------------|

|------------------------2-0-2---|--------------------------2-0-2---------|

|-----2--2-2-4--4--4-5---2-0-2---|--2--2--2--4--4--4-5------2-0-2---------|

|-----0--0-0-0--0--0-0---0---0---|--0--0--0--0--0--0-0------0---0---------|

|--------------------------3-----|----------------------------3-----------|





(A7) A5G5 A5

~~~~~~~~~~~~~~~~~~~~~~

S E. +Q +Q E. S

|---------------------------------------||

|-15--17------(17)-----(17)\------------||

|-----------------------------------14--||

|---------------------------------------||

|---------------------------------------||

|---------------------------------------||

|

| E. S +E E E E S E S

|---------------------------------------||

|--8--------8--(8)---8------------------||

|--6--------6--(6)---6------------------||

|--7--------7--(7)---7-------7-5--7-----||

|----------------------------7-5--7-----||

|---------------------------------------||

|

| S S S S S S E E E S E S

|---------------------------------------||

|---------------------------------------||

|----------------------------2-0--2-----||

|--2---2--2-4---4--4-5-------2-0--2-----||

|--0---0--0-0---0--0-0-------0----0-----||

|------------------------------3--------||





Outro

(A7) A5G5A5 (A7) A5 G5 A5

~~~~~~~~~~~~~~~~~~

E Q. +Q Q E S S +S S E S S E E E

||----------------------------------|-----------------------------------------|

||o-15S==17------------(17)---------|-14----14-14-(14)-14-14---14-14-14-------|

||----------------------------------|-14----14-14-(14)-14-14---14-14-14-------|

||----------------------------------|-----------------------------------------|

||o---------------------------------|-----------------------------------------|

||----------------------------------|-----------------------------------------|

|

| E. S +E E E E S E S E. S +E E E E S E S

||----------------------------------|-----------------------------------------|

||o--8-------8-(8)---8--------------|--8--------8--(8)-----8------------------|

||---6-------6-(6)---6--------------|--6--------6--(6)-----6------------------|

||---7-------7-(7)---7------7-5-7---|--7--------7--(7)-----7-------7--5-7-----|

||o-------------------------7-5-7---|------------------------------7--5-7-----|

||----------------------------------|-----------------------------------------|

|

| S S S S S S E E E S E S S S S S S S E E E S E S

||----------------------------------|-----------------------------------------|

||o---------------------------------|-----------------------------------------|

||--------------------------2-0-2---|------------------------------2--0-2-----|

||---2-2--2--4--4--4-5------2-0-2---|--2--2--2--4---4---4--5-------2--0-2-----|

||o--0-0--0--0--0--0-0------0---0---|--0--0--0--0---0---0--0-------0----0-----|

||----------------------------3-----|---------------------------------3-------|





(A7) A5 G5 A5

E S S +S S E S S E E E

|-----------------------------------------|

|-14----14-14-(14)-14-14---14-14-14-------|

|-14----14-14-(14)-14-14---14-14-14-------|

|-----------------------------------------|

|-----------------------------------------|

|-----------------------------------------|

|

| E. S +E E E E S E S

|-----------------------------------------|

|--8--------8--(8)-----8------------------|

|--6--------6--(6)-----6------------------|

|--7--------7--(7)-----7-------7--5-7-----|

|------------------------------7--5-7-----|

|-----------------------------------------|

|

| S S S S S S E E E S E S

|-----------------------------------------|

|-----------------------------------------|

|------------------------------2--0-2-----|

|--2--2--2--4---4---4--5-------2--0-2-----|

|--0--0--0--0---0---0--0-------0----0-----|

|---------------------------------3-------|





(A7) A5 G5 A5 (A7) A5 G5 A5

E S S +S S E S S E E E E S S +S S E S S E E E

|-----------------------------------------|-----------------------------------------|

|-14----14-14-(14)-14-14---14-14-14-------|-14----14-14-(14)-14-14---14-14-14-------|

|-14----14-14-(14)-14-14---14-14-14-------|-14----14-14-(14)-14-14---14-14-14-------|

|-----------------------------------------|-----------------------------------------|

|-----------------------------------------|-----------------------------------------|

|-----------------------------------------|-----------------------------------------|

|

| E. S +E E E E S E S E. S +E E E E S E S

|-----------------------------------------|-----------------------------------------|

|--8--------8--(8)-----8------------------|--8--------8--(8)-----8------------------|

|--6--------6--(6)-----6------------------|--6--------6--(6)-----6------------------|

|--7--------7--(7)-----7-------7--5-7-----|--7--------7--(7)-----7-------7--5-7-----|

|------------------------------7--5-7-----|------------------------------7--5-7-----|

|-----------------------------------------|-----------------------------------------|

|

| S S S S S S E E E S E S S S S S S S E E E S E S

|-----------------------------------------|-----------------------------------------|

|-----------------------------------------|-----------------------------------------|

|------------------------------2--0-2-----|------------------------------2--0-2-----|

|--2--2--2--4---4---4--5-------2--0-2-----|--2--2--2--4---4---4--5-------2--0-2-----|

|--0--0--0--0---0---0--0-------0----0-----|--0--0--0--0---0---0--0-------0----0-----|

|---------------------------------3-------|---------------------------------3-------|





(A7) A5 G5 A5

E S S +S S E S S E E S S 5x

|---------------------------------------------||

|-14----14-14-(14)-14-14---14-14-14----------o||

|-14----14-14-(14)-14-14---14-14-14-----14----||

|---------------------------------------------||

|--------------------------------------------o||

|---------------------------------------------||

|

| E. S +E E E E S E S 5x

|---------------------------------------------||

|--8--------8--(8)-----8---------------------o||

|--6--------6--(6)-----6----------------------||

|--7--------7--(7)-----7-------7--5-7---------||

|------------------------------7--5-7--------o||

|---------------------------------------------||

|

| S S S S S S E E E S E S 5x

|---------------------------------------------||

|--------------------------------------------o||

|------------------------------2--0-2---------||

|--2--2--2--4---4---4--5-------2--0-2---------||

|--0--0--0--0---0---0--0-------0----0--------o||

|---------------------------------3-----------||







THE ROVER

As recorded by Led Zeppelin

(From the 1975 Album PHYSICAL GRAFFITI)



Words and Music by Jimmy Page & Robert Plant

Arranged by Jimmy Page & Robert Plant

Transcribed by rocktabber



Gtr I (E A D G B E) - 'Untitled'

Gtr II (E A D G B E) - 'Untitled'

Gtr III (E A D G B E) - 'Untitled'

Gtr IV (E A D G B E) - 'Untitled'



Intro

Q=102

E

4/4

Gtr I

W H Q E S S W E E E E E E E S S

|----------|---------------|----------|-------------------|

|----------|---------------|----------|-------------------|

|----------|---------------|----------|-------------------|

|----------|---------------|----------|-5-5-7-7-5-7-5-----|

|----------|-------------7-|----------|---------------5h7-|

|----------|-----------0---|-0--------|-3-3-5-5-3-5-3-----|





+W +H S S S S S S S S

|------------|----------------------------|

|------------|--------10p9---9-10p9-9-----|

|------------|--------11p9---9-11p9-9-x---|

|------------|-------------9----------x---|

|-(7)--------|-(7)------------------------|

|------------|----------------------------|





|--4--|

W E E E E E E E S S +W +E Q. S S S S +S S S S

|----------|-------------------|------------|-----------------------------|

|----------|-------------------|------------|----------10p9---------------|

|----------|-------------------|------------|----------11p9---0-(0)-------|

|----------|-5-5-7-7-5-7-5-----|------------|-----------------0-(0)-0-2p0-|

|----------|---------------5h7-|-(7)--------|-(7)p0-----------------------|

|-0--------|-3-3-5-5-3-5-3-----|------------|-----------------------------|





Q E E E Q E +E E E E E E E E

|---------------------|-------------------------|

|---------------------|-------------------------|

|----------3b4--------|-------------------------|

|----4b5-2-----4b6--2-|-(2)-2-----------2-------|

|---------------------|-------4b5---4b5---------|

|-0-------------------|-------------------3b4-0-|





+E E E E E Q E +E E E E E E E E

||-------------------------|--------------------------||

||o------------------------|-------------------------o||

||--------------3b4--------|--------------------------||

||--------4b5-2-----4b6--2-|-(2)-2-----------2--------||

||o------------------------|-------4b5---4b5---------o||

||--(0)-0------------------|-------------------3b4-0--||





+E E E E E Q E +E E E E E E E E

|------------------------|-------------------------|

|------------------------|-------------------------|

|-------------3b4--------|-------------------------|

|-------4b5-2-----4b6--2-|-(2)-2-----------2-------|

|------------------------|-------4b5---4b5---------|

|-(0)-0------------------|-------------------3b4-0-|





F#5 E5 D5 G5 F#5 A5 E5 G5

Gtr I

Q E E E E E E +H. E E Q E E E E E E +H. E E

||--------------------|---------------|---------------------|----------------||

||o-------------------|---------------|---------------------|---------------o||

||--------------------|---------------|---------------------|----------------||

||--11--11-11-9-9---7-|-(7)------7S12-|-11--11-11-14-14---9-|-(9)------9S12--||

||o--9---9--9-7-7---5-|-(5)------5S10-|--9---9--9-12-12---7-|-(7)------7S10-o||

||--------------------|---------------|---------------------|----------------||





F#5 E5 D5 C#5 B5 (A)

Q E E E E E E +E E E E E E E E +E E E E S S E E E

|-------------------|-------------------|-----------0-0-----0-----|

|-------------------|-------------------|-----------0-0-----0-----|

|-------------------|-------------------|-----------4-4-----4-----|

|-11--11-11-9-9---7-|-(7)-7-7-7-6-6---4-|-(4)-4-4-4-2-2-----2-----|

|--9---9--9-7-7---5-|-(5)-5-5-5-4-4---2-|-(2)-2-2-2-0-0-----0-----|

|-------------------|-------------------|---------------3b4---3b4-|





Verse

E

E E E E E Q E +E E E E E E E E

|----------------------|-------------------------|

|----------------------|-------------------------|

|-----------3b4--------|-------------------------|

|-----4b5-2-----4b6--2-|-(2)-2-----------2-------|

|----------------------|-------4b5---4b5---------|

|-0-0------------------|-------------------3b4-0-|





+E E E E E Q E +E E S E. E E E E

|------------------------|-------0----------------|

|------------------------|-------0h2--0-----------|

|-------------3b4--------|------------3b4---------|

|-------4b5-2-----4b6--2-|-(2)-2----------4b5-2---|

|------------------------|----------------------2-|

|-(0)-0------------------|----------------------0-|





E E E E E Q E +E E E E E E E E

|----------------------|-------------------------|

|----------------------|-------------------------|

|-----------3b4--------|-------------------------|

|---2-4b5-2-----4b6--2-|-(2)-2-----------2-------|

|----------------------|-------4b5px-4b5---------|

|----------------------|-------------------3b4-0-|





+E E E E E Q E +E E E E E E E E

|------------------------|-------------------------|

|------------------------|-------------------------|

|-------------3b4--------|-------------------------|

|-------4b5-2-----4b6--2-|-(2)-2-----------2-------|

|------------------------|-------4b5---4b5---------|

|-(0)-0------------------|-------------------3b4-0-|





Chorus

F#5 E5 D5 G5

Gtr III

Q E E E E E E +H. E E

||-------------------------|-----------------------|

||o------------------------|-----------------------|

||-------------------------|-----------------------|

||--11----11-11--9--9----7-|-(7)--------------7S12-|

||o--9-----9--9--7--7----5-|-(5)--------------5S10-|

||-------------------------|-----------------------|

|

| Gtr II

| Q E E +E E E E +S S +E +H.

||------------5-(5)------4-|-(4)---(2)-(2)---------|

||o--------7-----------5-5-|-(5)---(3)-(3)---------|

||-----6--------(6)-4------|-(4)----2--(2)---------|

||-------------------------|-----------------------|

||o------------------------|-----------------------|

||-------------------------|-----------------------|

E Q. +E Q. +S S E +H.





F#5 A5 E5 G5

Q E E E E E E +H. E E

|---------------------------|----------------------||

|---------------------------|---------------------o||

|---------------------------|----------------------||

|-11----11-11-14--14------9-|--(9)----------9S12---||

|--9-----9--9-12--12------7-|--(7)----------7S10--o||

|---------------------------|----------------------||

|

| Q E E +E E E E +E E +H.

|-----------5-(5)---------9-|--(9)-7-(7)-----------||

|--------7------------10-10-|-(10)-9-(9)----------o||

|----6-------------9--------|------9-(9)-----------||

|---------------------------|------9-(9)-----------||

|---------------------------|---------------------o||

|---------------------------|----------------------||

E Q. E Q.





F#5 E5 D5 C#5 B5 (A)

Q E E E E E E +E E E E E E E E +E E E E E E E E

|----------------------|--------------------|----------------------|

|----------------------|--------------------|----------------------|

|----------------------|--------------------|----------------------|

|-11----11-11-9--9---7-|-(7)-7-7-7-6--6---4-|-(4)-4-4-4-2------2---|

|--9-----9--9-7--7---5-|-(5)-5-5-5-4--4---2-|-(2)-2-2-2-0----------|

|----------------------|--------------------|--------------3b5---0-|

|

| E E Q Q. E E E E E Q. E E E E E Q. E

|--------5----4--------|-------2---0--------|----------------------|

|-----7----------5-----|-----3---3----2-----|-------4---2----------|

|--6--------6------4-2-|-(2)------------1---|-----4---4----2-------|

|----------------------|------------------4-|-(4)--------------2---|

|----------------------|--------------------|----------------------|

|----------------------|--------------------|--------------------0-|

Q. E E E E E +H E E E E +H E E E E





Verse

E

Gtr I

+E E E E E Q E +E E E E E E E E

|------------------------|-------------------------|

|------------------------|-------------------------|

|-------------3b4--------|-------------------------|

|-------4b5-2-----4b6--2-|-(2)-2-----------2-------|

|------------------------|-------4b5---4b5---------|

|-(0)-0------------------|-------------------3b4-0-|

|

| +H H W

|------------------------|-------------------------|

|------------------------|-------------------------|

|------------------------|-------------------------|

|------------------------|-------------------------|

|------------------------|-------------------------|

|-(0)--------------------|-------------------------|





+E E E E E Q E +E E S E. E E E E

|------------------------|-------0----------------|

|------------------------|-------0h2--0-----------|

|-------------3b4--------|------------3b4---------|

|-------4b5-2-----4b6--2-|-(2)-2----------4b5-2---|

|------------------------|----------------------2-|

|-(0)-0------------------|----------------------0-|





E E E E E Q E +E E E E E E E E

|----------------------|-------------------------|

|----------------------|-------------------------|

|-----------3b4--------|-------------------------|

|---2-4b5-2-----4b6--2-|-(2)-2-----------2-------|

|----------------------|-------4b5px-4b5---------|

|----------------------|-------------------3b4-0-|





+E E E E E Q E +E E E E E E E E

|------------------------|-------------------------|

|------------------------|-------------------------|

|-------------3b4--------|-------------------------|

|-------4b5-2-----4b6--2-|-(2)-2-----------2-------|

|------------------------|-------4b5---4b5---------|

|-(0)-0------------------|-------------------3b4-0-|





Chorus

F#5 E5 D5

Gtr III

Q E E E E E E +H S S S S E E

|------------------------|------------------------------|

|------------------------|------------------------------|

|------------------------|--------------------7-(7)-7---|

|-11----11-11--9--9----7-|-(7)----------------7h=9--7---|

|--9-----9--9--7--7----5-|-(5)------------7h9---------9-|

|------------------------|------------------------------|

|

| Gtr II

| Q E E +E E E E +S S +E +H.

|-----------5-(5)------4-|-(4)---(2)-(2)----------------|

|--------7-----------5-5-|-(5)---(3)-(3)----------------|

|----6--------(6)-4------|-(4)----2--(2)----------------|

|------------------------|------------------------------|

|------------------------|------------------------------|

|------------------------|------------------------------|

E Q. +E Q. +S S E +H.





F#5 A5 E5

Q E E E E E E +H +E S S S S E

|---------------------------|------------------------------|

|---------------------------|------------------------------|

|---------------------------|----------------------9-(9)-9-|

|-11----11-11-14--14------9-|--(9)--------(9)------9h11--9-|

|--9-----9--9-12--12------7-|--(7)--------(7)-9h11---------|

|---------------------------|------------------------------|

|

| Q E E +E E E E +E E +H.

|-----------5-(5)---------9-|--(9)-7-(7)-------------------|

|--------7------------10-10-|-(10)-9-(9)-------------------|

|----6-------------9--------|------9-(9)-------------------|

|---------------------------|------9-(9)-------------------|

|---------------------------|------------------------------|

|---------------------------|------------------------------|

E Q. E Q.





F#5 E5 D5

Q E E E E E E +H E E E E

|------------------------|------------------------|

|------------------------|------------------------|

|------------------------|------------------------|

|-11----11-11--9--9----7-|-(7)------------7-7-7-7-|

|--9-----9--9--7--7----5-|-(5)------------5-5-5-5-|

|------------------------|------------------------|

|

| Q E E +E E E E +S S +E +H.

|-----------5-(5)------4-|-(4)---(2)-(2)----------|

|--------7-----------5-5-|-(5)---(3)-(3)----------|

|----6--------(6)-4------|-(4)----2--(2)----------|

|------------------------|------------------------|

|------------------------|------------------------|

|------------------------|------------------------|

E Q. +E Q. +S S E +H.





F#5 A5 E5

Q E E E E E E +H E E E E

|---------------------------|---------------------|

|---------------------------|---------------------|

|---------------------------|---------------------|

|-11----11-11-14--14------9-|--(9)--------9-9-9-9-|

|--9-----9--9-12--12------7-|--(7)--------7-7-7-7-|

|---------------------------|---------------------|

|

| Q E E +E E E E +E E +H.

|-----------5-(5)---------9-|--(9)-7-(7)----------|

|--------7------------10-10-|-(10)-9-(9)----------|

|----6-------------9--------|------9-(9)----------|

|---------------------------|------9-(9)----------|

|---------------------------|---------------------|

|---------------------------|---------------------|

E Q. E Q.





F#5 E5 D5 C#5 B5 (A)

Q E E E E E E +E E E E E E E E +E E E E E E E E

|----------------------|--------------------|----------------------|

|----------------------|--------------------|----------------------|

|----------------------|--------------------|----------------------|

|-11----11-11-9--9---7-|-(7)-7-7-7-6--6---4-|-(4)-4-4-4-2------2---|

|--9-----9--9-7--7---5-|-(5)-5-5-5-4--4---2-|-(2)-2-2-2-0----------|

|----------------------|--------------------|--------------3b5---0-|

|

| E E Q Q. E E E E E Q. E E E E E Q. E

|--------5----4--------|-------2---0--------|----------------------|

|-----7----------5-----|-----3---3----2-----|-------4---2----------|

|--6--------6------4-2-|-(2)------------1---|-----4---4----2-------|

|----------------------|------------------4-|-(4)--------------2---|

|----------------------|--------------------|----------------------|

|----------------------|--------------------|--------------------0-|

Q. E E E E E +H E E E E +H E E E E





Bridge

E13 E

Gtr I

+Q E E E E E E E E Q +Q a E E

|-------9---9-9---9-|----------------------|

|-------7---7-7---7-|---9-9--(9)\--(4)-----|

|-------7---7-7---7-|---9-9--(9)\--(4)-----|

|-------7-x-7-7---7-|---9-9--(9)\--(4)-----|

|-------------------|----------------------|

|-(0)---------------|--------------------0-|

|

| +E E Q H W

|-------------------|----------------------|

|-------------------|----------------------|

|-------------------|----------------------|

|-------------------|----------------------|

|-------------------|----------------------|

|-(0)---------------|----------------------|





E13 E

Q E E E E E E E E Q +Q a E E 4x

||-----9---9-9---9-|-----------------------||

||o----7---7-7---7-|---9-9--(9)\--(4)-----o||

||-----7---7-7---7-|---9-9--(9)\--(4)------||

||-----7-x-7-7---7-|---9-9--(9)\--(4)------||

||o----------------|----------------------o||

||-----------------|--------------------0--||





E13 E

Q E E E E E E E E Q a E S S S S e

|----9---9-9---9-|---------------------------|

|----7---7-7---7-|---9-9\--(4)---------------|

|----7---7-7---7-|---9-9\--(4)--------9----9-|

|----7---7-7---7-|---9-9\--(4)--------9h11---|

|----------------|---------------9h11--------|

|----------------|---------------------------|





E13 E

Q E E E E E E E E Q +Q a E E

|----9---9-9---9-|----------------------|

|----7---7-7---7-|---9-9--(9)\--(4)-----|

|----7---7-7---7-|---9-9--(9)\--(4)-----|

|----7---7-7---7-|---9-9--(9)\--(4)-----|

|----------------|----------------------|

|----------------|--------------------0-|





E13 E

Gtr I

Q E E E E E E E E Q S S S S E E

|----9---9-9---9-|-----------------------|

|----7---7-7---7-|---9-9-----------------|

|----7---7-7---7-|---9-9------------9-11-|

|----7---7-7---7-|---9-9-------9h11------|

|----------------|--------9h11-----------|

|----------------|-----------------------|

|

| Gtr IV

| W H S S S S E E

|----------------|-----------------------|

|----------------|-----------------------|

|----------------|------------------9-11-|

|----------------|-------------9h11------|

|----------------|--------9h11-----------|

|----------------|-----------------------|





Guitar Solo

F#m E D G

+Q E E E E E E +H +E E E E

|----------------------------------|------------------------------|

|----------------------------------|------------------------------|

|-(11)---------11---9--------------|------------------------------|

|-----------------------9-9------7-|--(7)-----------(7)----7-7-12-|

|-----------------------7-7------5-|--(5)-----------(5)----5-5-10-|

|----------------------------------|------------------------------|

|

| |-3--|

| +E a S S S S E a E E E a E +E S S S Q +E a E E E

|----------------------------------|------------------------------|

|----------------------------------|------------------------------|

|-(11)S(4)-------------------------|-------------------------9-11-|

|-------------------2-----7-9-9S11-|-(11)-9h11p9-7--(7)-9S11------|

|---------------2h4---7S9----------|------------------------------|

|----------2h4---------------------|------------------------------|





F#m A E G

Q E E E E E E +H. E E

|---------------------------------------|----------------------------------|

|---------------------------------------|----------------------------------|

|---------------------------------------|----------------------------------|

|--11---------11---11----14-14--------9-|--(9)--------------------9--12----|

|---9----------9----9----12-12--------7-|--(7)--------------------7--10----|

|---------------------------------------|----------------------------------|

|

| |-3--|

| +E S S S S S S S E E Q +E +E S S E +Q +E S S

|-------------------------9-------------|----------------------------------|

|------9h10p9----9-10-12----12-10b12====|=(10)-(10)r-9---------------------|

|-(11)--------11------------------------|--------------11-9-(9)--(9)-------|

|---------------------------------------|-----------------------------9-11-|

|---------------------------------------|----------------------------------|

|---------------------------------------|----------------------------------|





F#m E D

Q E E E E E E

|----------------------------------------|

|----------------------------------------|

|----------------------------------------|

|-11-----11-11----9----9------------7----|

|--9------9--9----7----7------------5----|

|----------------------------------------|

|

| |-3--|

| S E. E S S S S S S S S S S S

|----------------------------------------|

|----------------------9h10p9----9-10-12-|

|--9-11--11-------9-11--------11---------|

|------------9-11------------------------|

|----------------------------------------|

|----------------------------------------|





G

+H. E E

|---------------------------------------------|

|---------------------------------------------|

|---------------------------------------------|

|-(7)-------------------------------7S===12---|

|-(5)-------------------------------5S===10---|

|---------------------------------------------|

|

| |-3--|

| S S S S S S S S S S S S S S S S S

|--9------------------------------------------|

|-----12-9h10p9----9--------------------------|

|---------------11---11p9---11p9----9---------|

|-------------------------x------11---11p=9-7-|

|---------------------------------------------|

|---------------------------------------------|





F#m A E

Q E E E E E E +Q S S S S E E S S E

|-----------------------------------|--------------------------------------|

|-----------------------------------|--------------------------------------|

|-----------------------------------|-----------------9-(9)-9------9-(9)-9-|

|-11-----11-11---14----14-------9---|-(9)-------------9h11--9------9h11--9-|

|--9------9--9---12----12-------7---|-(7)-------9h11------------11---------|

|-----------------------------------|--------------------------------------|

|

| S S e E S S +S S S S S S S S S S S S S S S S
Get this song at amazon.com      Ebay     Ringtones Ringtones  


Learn to play: Songwriting, Piano, Harmonica, Guitar
More Led Zeppelin lyrics available at Muzikum

Related Led Zeppelin Tabs

The Ocean (live At Madison Square Garden) tabs
Wearing And Tearing tabs
Presence tabs
Celebration Day Remasters tabs
Black Dog2 tabs
Rock & Roll tabs
Your Time Is Gonna Come Bass tabs
Stairway To Heaven tabs
I Cant Quit You tabs
Trampled Under Foot tabs
Lemon Song Bass tabs
Hey Hey What Can I Do tabs
Kashmir (the Right Way!) tabs
Achilles Last Stand Remasters tabs
Tangerine Solo tabs
Bron Yr Aur (Version 2) tabs
Gallows Pole tabs
Black Dog3 tabs
No Quarter(100%) tabs
Hot Dog tabs


Guitar Tabs









All tabs are property and copyright of their owners. All tabs provided for educational purposes only. Privacy Policy, DMCA