Led Zeppelin

Over The Hills And Far Away Tabs



More from Led Zeppelin

Led Zeppelin Tabs
Led Zeppelin Chords
Led Zeppelin Bass
Led Zeppelin Lyrics

~ vibrato

h hammer on

p pull off

/ slide up

\ slide down



thats all you need to know





you'll have to listen to the song to find out the rythym







G D G D

|-----------------3-3-3-3--------------------2-2-2------------3-3-3-3------------------2-2---------------|

|-----------------0-0-0-0--------------------3-3-3------------0-0-0-0------------------3-3---------------|

|0h2p0--------0--0-0-0-0--0h2p0---0-4p2p0--2-2-2-0h2p0----0-0-0-0-0--0h2p0---0-4p2p0-2-2---------------|

|----------4-0----0-0-0-0--------4---------0-0-0-0-------4-0-0-0-0-0--------4---------0-0------2--0-2-0-|

|-----------------2-2-2-2-------------------------------------2-2-2-2-----------------------0-2---0------|

|-----------------3-3-3-3-------------------------------------3-3-3-3------------------------------------|









G D

|--3-3-3-3------------------2-2-2------------|--------------------------------------------------------|

|--2-2-0-0------------------3-3-3------------|---3-3-3---3-3-3---3-3-3-3-3-3-3-3/5-5-5-5-5-5-5-5------|

|--0-0-0-0--0h2p0---0-4p2p0-2-2-2--0h2p0-----|---0-0-0---0-0-0---0-0-0-0-0-0-0-0/0-0-0-0-0-0-0-0------|

|-0-0-0-0--------4---------0-0-0--------4-0-|---0-0-0---0-0-0---0-0-0-0-0-0-0-0/0-0-0-0-0-0-0-0------|

|--2-2-2-2-----------------------------------|-3-3-3-3-2-2-2-2-1-1-1-1-1-1-1-1-1/3-3-3-3-3-3-3-3------|

|--3-3-3-3-----------------------------------|--------------------------------------------------------|



^

|

Repeat the beginning and stop here

then play this

|

|



|--------------------------2-2-0---------------2-2-0-------------------2-2-2-2-2-----------|

|----3-3-3-----------------3-3-3---------------3-3-3-------------------3-3-3-3-3-----------|

|----0-0-0-----------------2-2-2---------------2-2-2-------------------2-2-2-2-2-----------|

|----0-0-0-------------2p0-0-0-0-----------2p0-0-0-0--------------2p0--0-0-0-0-0-----------|

|--3-3-3-3-2-------0h3-----------------0h3--------------------0h3--------------------------|

|------------3-3-3---------------3-3-3---------------3-3-3---------------------------------|











|-------------3-3-3-3------------------2-2-2-------------3-3-3--7-7-7--10-10-10-10-10-10--------------3-3-3-3--|

|-------------0-0-0-0------------------3-3-3-0h2p0-----0-0-0-0--7-7-7--10-10-10-10-10-10--------------0-0-0-0--|

|-0h2p0-----0-0-0-0-0--0h2p0---0-4p2p0-2-2-2-------4-0---0-0-0--8-8-8--11-11-11-11-11-11--0h2p0-----0-0-0-0-0--|

|-------4-0---0-0-0-0--------4---------0-0-0-------------0-0-0--9-9-9--12-12-12-12-12-12--------4-0---0-0-0-0--|

|-------------2-2-2-3------------------------------------2-2-2--9-9-9--12-12-12-12-12-12--------------2-2-2-2--|

|-------------3-3-3-2------------------------------------3-3-3--7-7-7--10-10-10-10-10-10--------------3-3-3-3--|









|--------------------2-2-2-----------------------------------2-2-0---------------2-2-0-----------------|

|--------------------3-3-3-------------3-3-3-----------------3-3-3---------------3-3-3-----------------|

|--0h2p0---0-4p2p0---2-2-2-0h2p0-------0-0-0-----------------2-2-2---------------2-2-2-----------------|

|--------4---------0-0-0-0-------4-0---0-0-0-------------2p0-0-0-0-----------2p0-0-0-0----------2p0----|

|------------------------------------3-3-3-3-2-------0h3-----------------0h3----------------0h3--------|

|----------------------------------------------3-3-3---------------3-3-3---------------3-3-3-----------|











|-9--9--9---7-7-7-7-7-7-7-7--9--9--9---7-7-7-7-7-7-7-7---9--9--9---7-7-7-7-7-7-7-7---9--9--9---7-7-7-7------|

|-11-11-11--9-9-9-9-9-9-9-9--11-11-11--9-9-9-9-9-9-9-9---11-11-11--9-9-9-9-9-9-9-9---11-11-11--9-9-9-9------|

|-9--9--9---7-7-7-7-7-7-7-7--9--9--9---7-7-7-7-7-7-7-7---9--9--9---7-7-7-7-7-7-7-7---9--9--9---7-7-7-7------|

|-11-11-11--9-9-9-9-9-9-9-9--11-11-11--9-9-9-9-9-9-9-9---11-11-11--9-9-9-9-9-9-9-9---11-11-11--9-9-9-9------|

|-9--9--9---7-7-7-7-7-7-7-7--9--9--9---7-7-7-7-7-7-7-7---9--9--9---7-7-7-7-7-7-7-7---9--9--9---7-7-7-7------|

|-9--9--9---7-7-7-7-7-7-7-7--9--9--9---7-7-7-7-7-7-7-7---9--9--9---7-7-7-7-7-7-7-7---9--9--9---7-7-7-7------|







^

|

|---------------------------------------| |

|---------------------------------------| |

|---------------------------------------| |

|-----------5-5-5-5--7-7-7-7-7--5-5-5-5-| |

|--2-5------5-5-5-5--7-7-7-7-7--5-5-5-5-| |

|------3-5--3-3-3-3--5-5-5-5-5--3-3-3-3-| |

|

repeat this first part too times then play this part again



do this cycle 3 times and then the solo comes









play these chords during the solo





|------------------------------|

|------------------------------|

|---------7-7-7---7------------| ^

|--5-5-5--7-7-7---7--7---2-----| |

|--5-5-5--5-5-5---5--7---2-----| |

|--3-3-3-------------5---0-----| |

when the solos dont you go back to the cycle





thats all i can do, im too lazy to do the solo

Get this song at amazon.com      Ebay     Ringtones Ringtones  


Learn to play: Songwriting, Piano, Harmonica, Guitar
Also available at Muzikum: Led Zeppelin - Over The Hills And Far Away lyrics

Related Led Zeppelin Tabs

The Rain Song tabs
Dancing Days Bass tabs
In My Time Of Dying tabs
Babe Im Gonna Leave You tabs
Livin' Lovin' Maid tabs
Traveling Riverside Blues tabs
How Many More Times Solo tabs
Black Country Woman Intro tabs
The Lemon Song (intro) tabs
Tea For One tabs
Black Mountain Side tabs
For Your Life Bass tabs
Heart Breaker (intro) tabs
Ozone Baby tabs
Black Dog tabs
Stairway To Heaven (acoustic) tabs
Babe Im Gonna Leave You Remasters tabs
Led Zeppelin 3 Album tabs
The Rover tabs
American Woman tabs


Guitar Tabs









All tabs are property and copyright of their owners. All tabs provided for educational purposes only. Privacy Policy, DMCA

Online converter - videoconverter.com