Led Zeppelin

Over The Hills And Far Away Bass Tabs



More from Led Zeppelin

Led Zeppelin Tabs
Led Zeppelin Chords
Led Zeppelin Bass
Led Zeppelin Lyrics




OVER THE HILLS AND FAR AWAY (Bassline)
As recorded by Led Zeppelin
(From the 1973 Album HOUSES OF THE HOLY)

Words and Music by Page and Plant
Arranged by Led Zeppelin
Transcribed by Connor

Gtr I (E A D G) - 'Bass'

Intro 1st Verse
Moderate Rock Q=96
1/4 4/4
Gtr I
Q Wx19 Wx13 H S E. S E.
|----|-------------||-------------|----------------||
|----|-------------||-------------|-----------7----||
|----|-------------||-------------|--------5-------||
|----|-------------||-------------|-------------5--||


2nd Verse
S S S S Q S S S S S S S S S S S S q S E. S E.
|----------------------------|----------------------|
|------------------------4-2-|------------7----7----|
|--------------0---0---0-----|--------------5-------|
|-3-3-3-3-3------------------|-3-3-3-3-3---------5--|


S S S S q S S S S S S S S S S S S q S S S S S S E
|----------------------------|--------------------------|
|------------------------4-2-|--------------------------|
|--------------0---0---0-----|--------------------------|
|-3-3-3-3-3------------------|-3-3-3-3-3----5---5---7---|


E S S S a S E S S S S S S E
|------------------------------|
|------------------------------|
|-5-x---5-5s7------------------|
|-----7-----------5---5---7----|


E S S S a S E S S S S S S E
|-----------------------------|
|-----------------------------|
|-5-x---5---------------------|
|-----7---5s7-----5---5---7---|


E S S S a S E S S S S S S E E S S S a S E S E. S E.
|-----------------------------|-------------------------|
|-----------------------------|---------------7----7----|
|-5-x---5-5s7-----------------|-5-x---5---------5-------|
|-----7-----------5---5---7---|-----7---5s7----------5--|


S S S S Q S S S S S S S S
|----------------------------|
|------------------------4-2-|
|--------------0---0---0-----|
|-3-3-3-3-3------------------|


S S S S q S E. S E. S S S S q S S S S S S S S
|----------------------|-----------------------------|
|------------7----7----|------------------------4-2--|
|--------------5-------|--------------0---0---0------|
|-3-3-3-3-3---------5--|-3-3-3-3-3-------------------|


S S S S q S S S S S S E E S S S a S E S S S S S S E
|--------------------------|-----------------------------|
|--------------------------|-----------------------------|
|--------------------------|-5-x---5-5s7-----------------|
|-3-3-3-3-3----5---5---7---|-----7-----------5---5---7---|


E S S S a S E S S S S S S S S
|-------------------------------|
|-------------------------------|
|-5-x---5-------------------5---|
|-----7---5s7-----5---5---7---7-|


E S S S a S E S S S S S S S S
|-------------------------------|
|-------------------------------|
|-5-x---5-5s7---------------5---|
|-----7-----------5---5---7---7-|


3rd Verse
E S S S a S E S E. S E. S S S S q S S S S S S S S
|-------------------------||------------------------------|
|---------------7----7----||------------------------4-2---|
|-5-x---5---------5-------||--------------0---0---0-------|
|-----7---5s7----------5--||-3-3-3-3-3--------------------|


S S S S q S E. S E. S S S S q S S S S S S S S
|----------------------|----------------------------|
|------------7----7----|------------------------4-2-|
|--------------5-------|--------------0---0---0-----|
|-3-3-3-3-3---------5--|-3-3-3-3-3------------------|


S S S S q S S S S S S S S
|-----------------------------||
|-----------------------------||
|------------------------5----||
|-3-3-3-3-3----5---5---7---7--||


Interlude
|-3-|
E. S e S S E. S e s s E E E E E S S E E E E. S e S S E. S e S S
|-----------------------|----------------------|------------------------|
|-5--5-5-7-x------------|--------------------2-|-5--5-5-4---------------|
|------------5--5-5-7-7-|-5---5------------2---|----------7-5--5-5---5--|
|-----------------------|---5---0-0-0-0-/4-----|------------------------|


E S S S S E +E S S S S E E. S S E S E. S S E S E E S S E +H
|---------------------------|-----------------------|------------------||
|---------------------------|-5--5-5h7--------------|------------------||
|-5-4---------------------7-|------------5--5-5h7---|------------------||
|-----7-5-4-0-(0)-4-4---7---|-----------------------|-5-5-7-4-0-(0)----||


Guitar Solo
E S S S S E E S S S S S S E S S S S E H
|---------------------------|------------------|
|---------x-4---2-----------|---------x-4------|
|---x-4-----------4---------|---x-4------------|
|-2-------------------2---0-|-2----------------|


E S S S S E E S S S S E E S S S S E H
|-------------------------|------------------|
|---------x-4---2---------|---------x-4------|
|---x-4-----------4-------|---x-4------------|
|-2-------------------2---|-2----------------|


E S S S S E E S S S S E E S S S S E H 3x
||--------------------------|-------------------||
||o---------x-4---2---------|---------x-4------o||
||o---x-4-----------4-------|---x-4------------o||
||--2-------------------2---|-2-----------------||


3/4
E S S S S E E S S S S E E S S S S E Q
|-------------------------|------------------|
|---------x-4---2---------|---------x-4------|
|---x-4-----------4-------|---x-4------------|
|-2-------------------2---|-2----------------|


2/4
E. E S E. E. S S S E. E. E. a E S E. E. E. e E Q
|--------------|-------3--6--9--|-9s11----------9--|-11------||
|-----------2--|-4-4-4----------|--------8--11-----|---------||
|----1-1-4-----|----------------|------------------|---------||
|-2------------|----------------|------------------|---------||


4/4
E S S S a S E S S S S S S S S E S S S a S E S S S S S S S S
|-------------------------------|-------------------------------|
|-------------------------------|-------------------------------|
|-5-x---5-5s7---------------5---|-5-x---5-------------------5---|
|-----7-----------5---5---7---7-|-----7---5s7-----5---5---7---7-|


E S S S a S E S S S S S S S S E S S S a S E S E. S E.
|-------------------------------|----------------------------||
|-------------------------------|---------------7----7-------||
|-5-x---5-5s7-------------5-----|-5-x---5---------5----------||
|-----7-----------5---7-------7-|-----7---5s7----------5-----||


4th Verse
S S S S Q S S S S S S S S S S S S q S E. S E.
|----------------------------|----------------------|
|------------------------4-2-|------------7----7----|
|--------------0---0---0-----|--------------5-------|
|-3-3-3-3-3------------------|-3-3-3-3-3---------5--|


S S S S Q S S S S S S S S S S S S q S S S S S S E
|----------------------------|--------------------------|
|------------------------4-2-|--------------------------|
|--------------0---0---0-----|--------------------------|
|-3-3-3-3-3------------------|-3-3-3-3-3----5---5---7---|


E. S S a S E S S S S S S S S E S S S a S E S S S S S S S S
|------------------------------|-------------------------------|
|------------------------------|-------------------------------|
|-5----5-5s7---------------5---|-5-x---5-------------------5---|
|----7-----------5---5---7---7-|-----7---5s7-----5---5---7---7-|


E S S S a S E S S S a S S S S S E. S S a S E S E. S E.
|---------------------------------|-------------------------|
|---------------------------------|--------------7----7-----|
|-5-x---5-5s7---------------5-----|-5----5---------5--------|
|-----7-----------5---5s7-------7-|----7---5s7----------5---|


S S S S Q S S S S S S S S S S S S q S E. S E.
|----------------------------|----------------------|
|------------------------4-2-|------------7---------|
|--------------0---0---0-----|--------------5--5----|
|-3-3-3-3-3------------------|-3-3-3-3-3---------5--|


S S S S Q S S S S S S S S S S S S q S S S E S S S
|----------------------------|--------------------------|
|------------------------4-2-|--------------------------|
|--------------0---0---0-----|------------------------5-|
|-3-3-3-3-3------------------|-3-3-3-3-3----3---3-5-7---|


S S S S Q S S S E S S S S S S S Q S S S E S S S 6x
||---------------------------|---------------------------||
||o--------------------------|--------------------------o||
||o-7-5-----5--------------5-|-7-5--------------------5-o||
||------7-5------3---3-5-7---|-----7-5-3----3---3-5-7----||


Keyboard Outro
Wx8 Wx3 W
|------------|------------|------*|
|------------|------------|------*|
|------------|------------|------*|
|------------|------------|------*|



***************************************************************************************
* Generated using Power Tab Editor by Brad Larsen - http://powertab.guitarnetwork.org
*
***************************************************************************************



Get this song at amazon.com      Ebay     Ringtones Ringtones  


Learn to play: Songwriting, Piano, Harmonica, Guitar
Also available at Muzikum: Led Zeppelin - Over The Hills And Far Away lyrics

Related Led Zeppelin Bass Tabs

For Your Life bass
Good Times Bad Times bass
Rock N Roll bass
The Ocean bass
The Ocean (100% Correct) bass
Kashmir (live) bass
How Many More Times bass
The Gilr I Love, She Got Long Black Wavy Hair bass
South Bound Saurez bass
Dyer Maker bass
Stairway To Heaven( Out Of Book, Perfect No Questions Asked) bass
Friends bass
Rock And Roll(studio Version) bass
Moby Dick bass
In The Evening bass
Your Time Is Gonna Come bass
What Is And Never Should Be bass
Lemon Song bass
Whole Lotta Love Bass Tabs bass
Stairway To Heaven Intro bass


Guitar Tabs









All tabs are property and copyright of their owners. All tabs provided for educational purposes only. Privacy Policy, DMCA