Led Zeppelin

Out On The Tiles (complete) Bass Tabs



More from Led Zeppelin

Led Zeppelin Tabs
Led Zeppelin Chords
Led Zeppelin Bass
Led Zeppelin Lyrics




JPJ!

G :-------------------------------|-------------------|-------------------|
D :-------------------------------|7----7----7--------|------4*-----------|
A :-------------------------------|-------------------|--0-4-------------6|
E :3-3-3-3-3-3-3-3-2-2-2-2-2-2-2-2|--5----5----5--5---|2------------------|

G :-------------------------------|-------------------|
D :-------------------------------|------4*-----------|
A :7-6-7-6-7-6-4------------------|--0-4-------------6|
E :--------------5-7-5-7-5-7-8-7-5|2------------------|

G :-------------------------------|-------------------|
D :-------------------------------|------4*-----------|
A :7-6-7-6-7-6-4------------------|--0-4-------------6|
E :--------------5-7-5-7-5-7-8-7-5|2------------------|

G :-------------------------------|--------------|
D :-------------------------------|--------------|
A :7-6-7-6-7-6--------------------|--------------|
E :------------9-7-9-7-9-7-9-7-5-4|5-4-5-4-5-4-5-|

G :----------------------------|-------------------|
D :----------------------------|------4*-----------|
A :----------------------------|--0-4-------------6|
E :2-----0-----2-------0---2---|2------------------|

G :-------------------------------|-------------------|
D :-------------------------------|------4*-----------|
A :7-6-7-6-7-6-4------------------|--0-4-------------6|
E :--------------5-7-5-7-5-7-8-7-5|2------------------|

G :-------------------------------|-------------------|
D :-------------------------------|------4*-----------|
A :7-6-7-6-7-6-4------------------|--0-4-------------6|
E :--------------5-7-5-7-5-7-8-7-5|2------------------|

G :-------------------------------|--------------|----------------|
D :-------------------------------|--------------|----------------|
A :7-6-7-6-7-6--------------------|--------------|----------------|
E :------------9-7-9-7-9-7-9-7-5-4|5-4-5-4-5-4-5-|2--0--2---0-2---|

G :--------------------|-----------------------|--------------------|
D :--------------------|-----------------------|--------------------|
A :--------------------|----------7-7-7-7-5----|--------------------|
E :0-0-0-0---5-5-5-5---|5-5-5-5-------------7-5|0-0-0-0---5-5-5-5---|

G :-----------------------|--------------------|--------------------|
D :-----------------------|7----7----7----7----|--------------------|
A :----------7-7-7-7-5----|--------------------|--------------------|
E :5-5-5-5-------------7-5|--5----5----5----5--|0-0-0-0---5-5-5-5---|

G :-----------------------|--------------------|-----------------------|
D :-----------------------|--------------------|-----------------------|
A :----------7-7-7-7-5----|--------------------|----------7-7-7-7-5----|
E :5-5-5-5-------------7-5|0-0-0-0---5-5-5-5---|5-5-5-5-------------7-5|

G :----------------------------|-------------------------------|
D :7------7------7------7------|----x-x-----x-x-----x-x-----x-x|
A :----------------------------|----x-x-----x-x-----x-x-----x-x|
E :--(5)----(5)----(5)----(5)--|3-3-3-3-3-3-3-3-2-2-2-2-2-2-2-2|

G :----------------------------|-------------------------------|
D :7------7------7------7------|----x-x-----x-x-----x-x-----x-x|
A :----------------------------|----x-x-----x-x-----x-x-----x-x|
E :--(5)----(5)----(5)----(5)--|3-3-3-3-3-3-3-3-2-2-2-2-2-2-2-2|

G :----------------------------|-------------------|
D :7------7------7------7------|------4*-----------|
A :----------------------------|--0-4-------------6|
E :--(5)----(5)----(5)----(5)--|2------------------|

G :-------------------------------|-------------------|
D :-------------------------------|------4*-----------|
A :7-6-7-6-7-6-4------------------|--0-4-------------6|
E :--------------5-7-5-7-5-7-8-7-5|2------------------|

G :-------------------------------|-------------------|
D :-------------------------------|------4*-----------|
A :7-6-7-6-7-6-4------------------|--0-4-------------6|
E :--------------5-7-5-7-5-7-8-7-5|2------------------|

G :-------------------------------|--------------|
D :-------------------------------|--------------|
A :7-6-7-6-7-6--------------------|--------------|
E :------------9-7-9-7-9-7-9-7-5-4|5-4-5-4-5-4-5-|

G :----------------------------|-------------------|
D :----------------------------|------4*-----------|
A :----------------------------|--0-4-------------6|
E :2-----0-----2-------0---2---|2------------------|

G :-------------------------------|-------------------|
D :-------------------------------|------4*-----------|
A :7-6-7-6-7-6-4------------------|--0-4-------------6|
E :--------------5-7-5-7-5-7-8-7-5|2------------------|

G :-------------------------------|-------------------|
D :-------------------------------|------4*-----------|
A :7-6-7-6-7-6-4------------------|--0-4-------------6|
E :--------------5-7-5-7-5-7-8-7-5|2------------------|

G :-------------------------------|--------------|----------------|
D :-------------------------------|--------------|----------------|
A :7-6-7-6-7-6--------------------|--------------|----------------|
E :------------9-7-9-7-9-7-9-7-5-4|5-4-5-4-5-4-5-|2--0--2---0-2---|

G :--------------------|-----------------------|--------------------|
D :--------------------|-----------------------|--------------------|
A :--------------------|----------7-7-7-7-5----|--------------------|
E :0-0-0-0---5-5-5-5---|5-5-5-5-------------7-5|0-0-0-0---5-5-5-5---|

G :-----------------------|--------------------|--------------------|
D :-----------------------|7----7----7----7----|--------------------|
A :----------7-7-7-7-5----|--------------------|--------------------|
E :5-5-5-5-------------7-5|--5----5----5----5--|0-0-0-0---5-5-5-5---|

G :-----------------------|--------------------|-----------------------|
D :-----------------------|--------------------|-----------------------|
A :----------7-7-7-7-5----|--------------------|----------7-7-7-7-5----|
E :5-5-5-5-------------7-5|0-0-0-0---5-5-5-5---|5-5-5-5-------------7-5|

G :----------------------------|-------------------------------|
D :7------7------7------7------|----x-x-----x-x-----x-x-----x-x|
A :----------------------------|----x-x-----x-x-----x-x-----x-x|
E :--(5)----(5)----(5)----(5)--|3-3-3-3-3-3-3-3-2-2-2-2-2-2-2-2|

G :----------------------------|-------------------------------|
D :7------7------7------7------|----x-x-----x-x-----x-x-----x-x|
A :----------------------------|----x-x-----x-x-----x-x-----x-x|
E :--(5)----(5)----(5)----(5)--|3-3-3-3-3-3-3-3-2-2-2-2-2-2-2-2|

G :-------------------------|----------------|----------------|
D :7------7------7----------|7---------------|----------7-5---|
A :-------------------------|----------------|----------------|
E :--(5)----(5)----(5)------|--0-----0-0-----|0-0-----0-------|

G :----------------|----------------|----------------|----------------|
D :7---------------|----------7-5---|7---------------|----------7-5---|
A :----------------|----------------|----------------|----------------|
E :--0-----0-0-----|0-0-----0-------|--0-----0-0-----|0-0-----0-------|

G :----------------|----------------|----------------|----------------|
D :7---------------|----------7-5---|7---------------|----------7-5---|
A :----------------|----------------|----------------|----------------|
E :--0-----0-0-----|0-0-----0-------|--0-----0-0-----|0-0-----0-------|

G :----------------|----------------|----------------|----------------|
D :7---------------|----------7-5---|7---------------|----------7-5---|
A :----------------|----------------|----------------|----------------|
E :--0-----0-0-----|0-0-----0-------|--0-----0-0-----|0-0-----0-------|

G :----------------|----------------|----------------|----------------|
D :7---------------|----------7-5---|7---------------|----------7-5---|
A :----------------|----------------|----------------|----------------|
E :--0-----0-0-----|0-0-----0-------|--0-----0-0-----|0-0-----0-------|

G :----------------|----------------|----------------|----------------|
D :7---------------|----------7-5---|7---------------|----------7-5---|
A :----------------|----------------|----------------|----------------|
E :--0-----0-0-----|0-0-----0-------|--0-----0-0-----|0-0-----0-------|

G :----------------|----------------|----------------|----------------|
D :7---------------|----------7-5---|7---------------|----------7-5---|
A :----------------|----------------|----------------|----------------|
E :--0-----0-0-----|0-0-----0-------|--0-----0-0-----|0-0-----0-------|

G :----------------|----------------|----------------|----------------|
D :7---------------|----------7-5---|7---------------|----------7-5---|
A :----------------|----------------|----------------|----------------|
E :--0-----0-0-----|0-0-----0-------|--0-----0-0-----|0-0-----0-------|

G :----------------|----------------|----------------|
D :7---------------|----------7-5---|7---------------|
A :----------------|----------------|----------------|
E :--0-----0-0-----|0-0-----0-------|--0-----0-0-----|



Get this song at amazon.com      Ebay     Ringtones Ringtones  


Learn to play: Songwriting, Piano, Harmonica, Guitar
More Led Zeppelin lyrics available at Muzikum

Related Led Zeppelin Bass Tabs

Stair Way To Heaven (out Of The Golden Book) bass
Dazed & Confused bass
Moby Dick - 110% Correct Without A Doubt bass
Communitcation Breakdown bass
Trampeled Underfoot bass
What Is And Never Should Be bass
Baby Come On Home bass
Sick Again bass
The Rain Song bass
D'yer Mak'er (complete) bass
Tangerine bass
White Summer/black Mountain Side bass
Dazed And Confused Note For Note bass
Lemon Song Bass Solo bass
Since I've Been Loving You bass
Night Flight bass
Rock And Roll Correct Version bass
The Rover bass
For Your Life bass
The Wanton Song bass


Guitar Tabs









All tabs are property and copyright of their owners. All tabs provided for educational purposes only. Privacy Policy, DMCA