Led Zeppelin

Out On The Tiles Bass Tabs



More from Led Zeppelin

Led Zeppelin Tabs
Led Zeppelin Chords
Led Zeppelin Bass
Led Zeppelin Lyrics



Intro

G:-------------------------------------------------
D:-----------------------------------------------4-
A:---------------------------------------------4---
E:--33333333-22222222---5-4---5-4--5-4----2--4-----


Verse

G:---------------------------------------------
D:-1-2-1-2-1-2-1----------------------------4--
A:---------------4-1-2-1-2-1-2-4-2-0------4---- x2
E:------------------------------------2-4------

G:----------------------------------------------------
D:-1-2-1-2-1-2-1--------------------------------------
A:---------------4-1-2-1-2-1-2-4-2-1--0404040---------
E:--------------------------------------------2--0--2-

G:------------------------------------------------
D:-------4---1-2-1-2-1-2-1------------------------
A:-----4-------------------4-1-2-1-2-1-2-4-2-0---- x2
E:-2-4--------------------------------------------

G:-----------------------------------------------------------
D:-------4--1-2-1-2-1-2-1------------------------------------
A:-----4------------------4-1-2-1-2-1-2-4-2-1----------------
E:-2-4----------------------------------------5454545--2-0-2-


Chorus

G:-----------------------------------------------------------------------------------
D:-----------------------------------------------------------------------------------
A:-----------------------------------------------------------------------------------
E:-00000000-5555555555555555-0000000000000000-5555555555555555-5-4-5-4-5-4-5-4-------


G:----------------------------------------
D:----------------------------------------
A:---------------------------------------- x2
E:--33333333-22222222---5-4---5-4--5-4----


Verse

G:---------------------------------------------
D:-1-2-1-2-1-2-1----------------------------4--
A:---------------4-1-2-1-2-1-2-4-2-0------4---- x2
E:------------------------------------2-4------

G:----------------------------------------------------
D:-1-2-1-2-1-2-1--------------------------------------
A:---------------4-1-2-1-2-1-2-4-2-1--0404040---------
E:--------------------------------------------2--0--2-

G:------------------------------------------------
D:-------4---1-2-1-2-1-2-1------------------------
A:-----4-------------------4-1-2-1-2-1-2-4-2-0---- x2
E:-2-4--------------------------------------------

G:-----------------------------------------------------------
D:-------4--1-2-1-2-1-2-1------------------------------------
A:-----4------------------4-1-2-1-2-1-2-4-2-1----------------
E:-2-4----------------------------------------5454545--2-0-2-


Chorus

G:-----------------------------------------------------------------------------------
D:-----------------------------------------------------------------------------------
A:-----------------------------------------------------------------------------------
E:-00000000-5555555555555555-0000000000000000-5555555555555555-5-4-5-4-5-4-5-4-------


G:----------------------------------------
D:----------------------------------------
A:---------------------------------------- x2
E:--33333333-22222222---5-4---5-4--5-4----



Outro

G:------------------------------------------
D:------------------------------------------
A:------------------------------------------ just keep playing it until the song is over
E:-0000/3-33-0000/3-33-0000/3-33/5-55-0/3---


Please rate this tab

thanks!

Taken from The BassMasta -- http://www.tabs-database.com



Get this song at amazon.com      Ebay     Ringtones Ringtones  


Learn to play: Songwriting, Piano, Harmonica, Guitar
Also available at Muzikum: Led Zeppelin - Out on the tiles lyrics

Related Led Zeppelin Bass Tabs

Babe, I'm Gonna Leave You bass
Dryer Maker bass
Moby Dick (live) bass
The Girl I Love bass
Bring It On Home- The Whole Song bass
Carouselambra bass
Kashmire bass
Crunge bass
Dazed & Confused bass
Heart Breaker bass
Whole Lotta Love bass
The Ocean (complete) bass
Thats The Way bass
Out On The Tiles bass
No Quater bass
Ramble On bass
The Rover bass
Lemon Song (main Riff) bass
The Girl I Love She Got Long Black Wavu Hair bass
No Quarter bass


Guitar Tabs









All tabs are property and copyright of their owners. All tabs provided for educational purposes only. Privacy Policy, DMCA

Online converter - videoconverter.com