Led Zeppelin

No Quater Bass Tabs



More from Led Zeppelin

Led Zeppelin Tabs
Led Zeppelin Chords
Led Zeppelin Bass
Led Zeppelin Lyrics



no quarter
led zeppelin
standerd tuning

intro
G|-------------------------------------------|----------------------------|
D|-----------------7-6-5-----6s7--------7----|----------------------------|
A|------6s7---------------5-------5--5-----5-|--2s5--5--5--5--2s5--5----5-|
E|-7s5-------5--5----------------------------|----------------------------|


piano verse
G|---------------------------------------|---------------------------------------|
D|---------------------------------2-----|o-------------------------------------o|
A|5--------------------------2--------5--|o-------------------------------------o|
E|---0--2--2--2--2--0--2--5-----5--------|--5----------5----------5----------5---|



G|----------------------------------------------------------------------|
D|----------------------------------7--6--5--------6--7--------7--------|
A|----------------6--7--------7--------------7--5--------5--5-----5--4--|
E|---5s7--7s5-----------5--5-----5--------------------------------------|


piano Solo
G|-------------------------------------|----------------------------------------|
D|o-----------------------------------o|----------------------------------------|
A|o--------4-----------4-----------4--o|--5-----5-----2--5-----2-----2--5-------|
E|-------------------------------------|-----5-----5--------5-----5-----------5-|


guitar
G|--------------------6-------6-----6--------------5h6--5h6--5h6--5h6-------|-------|
D|----------------5h6-----5h6-----------------5--6----------------------6---|-------|
A|-------5-----5------------------5-----5----------------------------------5|-------|
E|-2--5-----5---------------------------------------------------------------|--2--4-|


end-you can work around this
G|---------------4--6--|
D|---------4--6--------|
A|---2--4--------------|
E|---------------------|

Brought to you by the BassMasta - http://www.tabs-database.com



Get this song at amazon.com      Ebay     Ringtones Ringtones  


Learn to play: Songwriting, Piano, Harmonica, Guitar
Also available at Muzikum: Led Zeppelin - No Quater lyrics

Related Led Zeppelin Bass Tabs

Trampeled Underfoot bass
Black Dog(100% Correct) bass
Rock And Roll Correct Version bass
In The Light bass
We're Gonna Groove bass
Travelling Riverside Blues bass
Poor Tom bass
Bring It On Home bass
Rock And Roll(studio Version) bass
Hart Breaker bass
Four Sticks bass
I Can't Quit You Baby bass
Kashmir (the Right Way!) bass
Achillies Last Stand bass
Kashmir (live) bass
Bron Y Aur Stomp bass
Darlene bass
Im Gonna Crawl bass
In The Evening bass
Black Dog bass


Guitar Tabs









All tabs are property and copyright of their owners. All tabs provided for educational purposes only. Privacy Policy, DMCA

Online converter - videoconverter.com